PrimaNota.ru - самый крупный в мире бесплатный архив песенных текстов, аккордов, табулатур и нот


Various Artists - In The Jungle - таба, видео

Регистрация Запомнить меня
Войти через:  Facebook Google Twitter Vk Yandex Mail.ru

Various Artists - In The Jungle - таба, видео

Печатать
Просмотров: 87
Уроки эстрадного вокала в Санкт-Петербурге
Main bit:
E
B-----0-----0-1-0-------0-----0---|-3-0---0-3-1-0-------0-----0---|
G-0-2----2--------2-0-2---2-0---2-|-----2---------2-0-2---2-0---2-|
D---------------------------------|-------------------------------|
A---------------------------------|-------------------------------|
E---------------------------------|-------------------------------|

Other bits:
E---------------------|
B---3-1-3-1-0---------|
G---------------------|
D-0-----------0-0-2-0-|
A---------------------|
E---------------------|

E-----------------|---------------|
B-3-1-0-----------|-3-1-0---------|
G-------2-0-------|-------2-0-----|
D-----------2-0---|-----------2-0-|
A---------------3-|---------------|
E-----------------|---------------|

The "wim-a-way" bit is easy, just open G for 7 bars,then the D string for i bar and repeat.

I'm not sure about the chords, but i think its G C G D over and over strumming.
Добавлено: 19.08.2013
Другие материалы по этой песне:
  • Аккорды и текст

Страница создана 19.08.2013
http://primanota.ru/various-artists/in-the-jungle-chords.htm
Привет, Гость.
Предлагаем пройти революционный курс по гитаре.
Подарок от PrimaNota.Ru, забирай!