PrimaNota.ru - самый крупный в мире бесплатный архив песенных текстов, аккордов, табулатур и нот


Various Artists - Greensleeves - таба, видео

Регистрация Запомнить меня
Войти через:  Facebook Google Twitter Vk Yandex Mail.ru

Various Artists - Greensleeves - таба, видео

Печатать
Просмотров: 64
This should be 100% correct. Listen to the actual
song to get the beat right. If you find any problems
email me at xxxjordanxxxx@gmail.com and i will fix it.
Let all the notes ring out.

   Am      C       G/B    Em       Am             E
e:---0-----0--1--0--0-----0--------0--------------0-------|
b:---1--3--1--------3--0--0-----0--1--------------0-------|
g:2--2-----0--------0-----0--2-----2--2--2--1--2--1--1----|
d:---2-----2--------0-----2--------2-----2--------2-----2-|
a:---0-----3--------2-----2--------0-----0--------2-----2-|
e:------------------------------------------------0-----0-|

   Am      C       G/B    Em       Am       E       Am
e:---0-----0--1--0--0-----0--------0--------0-------------|
b:---1--3--1--------3--0--0-----0--1--0-----0-------------|
g:2--2-----0--------0-----0--2-----2-----2--1-----1--2--2-|
d:---2-----2--------0-----2--------2--------2--4-----2--2-|
a:---0-----3--------2-----2--------0--------2--------0--0-|
e:------------------------------------------0-------------|

  C          G/B   Em       Am              E
e:3--3--1--0--0-----0--------0--------------0-------|
b:1--1--------3--0--0-----0--1--------------0-------|
g:0--0--------0-----0--2-----2--2--2--1--2--1--1----|
d:2--2--------0-----2--------2-----2--------2-----2-|
a:---3--------2-----2--------0-----0--------2-----2-|
e:------------------0-----------------------0-----0-|

  C          G/B   Em       Am        E       Am
e:3--3--1--0--0-----0--------0--------0-------------|
b:1--1--------3--0--0-----0--1--0-----0-------------|
g:0--0--------0-----0--2-----2-----2--1-----1--2--2-|
d:2--2--------0-----2--------2--------2--4-----2--2-|
a:---3--------2-----2--------0--------2--------0--0-|
e:------------------0-----------------0-------------|
Добавлено: 05.08.2013
Другие материалы по этой песне:
  • Аккорды и текст

Страница создана 05.08.2013
http://primanota.ru/various-artists/greensleeves-chords.htm
Привет, Гость.
Предлагаем пройти революционный курс по гитаре.
Подарок от PrimaNota.Ru, забирай!