PrimaNota.ru - самый крупный в мире бесплатный архив песенных текстов, аккордов, табулатур и нот


Various Artists - Canon - таба, видео

Регистрация Запомнить меня
Войти через:  Facebook Google Twitter Vk Yandex Mail.ru

Various Artists - Canon - таба, видео

Печатать
Просмотров: 104
Уроки эстрадного вокала в Санкт-Петербурге
~Normal Tuning~

The Chords are listed on top of each section just in case you want someone to join 
in and play with you. 
This song is all done from memory. I used to play it on the piano a while back. 
So I am not sure if this is the real song.

   
   C        G        Am       Em       F        C        F

E|-0---0---|--------|--------|--------|--------|--------|--------|
B|---------|3---0---|1---1---|0-------|--------|--------|--------|
G|---0---0-|--0---0-|--------|----0---|2---2---|0---0---|2---2---|
D|---------|--------|--2---2-|--2---2-|--------|------2-|------3-|
A|---------|--------|--------|--------|--3---3-|--3-----|--3-----|
E|---------|--------|--------|--------|--------|--------|--------|

   G           C        G        Am       Em       F

E|---------01|-0---0---|3---1---|0-------|0-------|--------|
B|-0----013--|---1---1-|-030-030|--1-1---|--0-3-0-|1-------|
G|---0-2-----|--0-0-0-0|--------|-2-2--0-|-0-0-0-0|--2-2---|
D|-----------|---------|--------|-----2-2|--------|-3-3--3-|
A|-----------|---------|--------|--------|--------|-----3-3|
E|-----------|---------|--------|--------|--------|--------|

  C         F        G    G7

E|-----3-0-|1---5-1-|3---|----|
B|-1----1-1|--1--1-1|-030|3-0-|
G|---0-----|-2-2----|----|-0-0|
D|--2-2----|--------|----|----|
A|---------|--------|----|----|
E|---------|--------|----|----|

Repeat One More Time
Then End With...

  C

E|----|
B|-1~~|
G|----|
D|----|
A|----|
E|----|
Добавлено: 31.07.2013
Другие материалы по этой песне:
  • Аккорды и текст

Страница создана 31.07.2013
http://primanota.ru/various-artists/canon-chords.htm
Привет, Гость.
Предлагаем пройти революционный курс по гитаре.
Подарок от PrimaNota.Ru, забирай!