PrimaNota.ru - самый крупный в мире бесплатный архив песенных текстов, аккордов, табулатур и нот


Varg - Wir Sind Die Woelfe - таба, видео

Регистрация Запомнить меня
Войти через:  Facebook Google Twitter Vk Yandex Mail.ru

Varg - Wir Sind Die Woelfe - таба, видео

Печатать
Просмотров: 74
Tab by: Someone(fimbulwinter@abv.bg)


Listen to the song for timing, picking patterns etc.
e||--------------------------------------------------------------------------------||
B||--12---------------------------------------12-----------------------------------||
G||------9-----9-11-9--9----9-11-12-11-----------9----9-11-9--12-14-12-11-----9-11-||
D||---------12-----------12------------------------12----------------------12------||
A||--------------------------------------------------------------------------------||
E||--------------------------------------------------------------------------------||


e||------------------------------------||
B||--12---10---12---13---12---10---12~-||
G||-----9----9----9----9----9----9-----||
D||------------------------------------||
A||------------------------------------||
E||------------------------------------||


e||--------------------------------------------||
B||--------------------------------------------||
G||------------------------------/-------------||
D||--9/------------9/----7--10---/--------7-10-||
A||--7/-2---5--7---7/-2--5--8----/---5--7-5-8--||
E||-----0---3--5------0----------/---3--5------||

e||------------------------------------------------------------------------||
B||------------------------------------------------------------------------||
G||--9----------------------------------9----------------------------------||
D||----9-7-9-10-9--9-7-9-10--10-9-7-------9-7-9-10-9--7--9-7----7----------||
A||---------------------------------------------------------10---10-9-10-9-||
E||------------------------------------------------------------------------||

e||-----------------------------------------||
B||-----------------------------------------||
G||-----------------------------------------||
D||---9---7-------------9--7------------7-9-||
A||---7---7---10--5-4---7--7--10--5--4--5-7-||
E||-----------8---3-2---------8---3--2------||

e||------------------------------------------------------------------------||
B||------------------------------------------------------------------------||
G||--9----------------------------------9----------------------------------||
D||----9-7-9-10-9--9-7-9-10--10-9-7-------9-7-9-10-9--7-9-7----7-----------||
A||---------------------------------------------------------10---10-9-10-9-||
E||------------------------------------------------------------------------||

e||------------------------------------------------------------||
B||------------------------------------------------------------||
G||------------------------------------------------------------||
D||--9---------------------------------9-----------------------||
A||--7-9--7-9-10-9---9-7-9-10-10-9-7---7-9-7-9-10-9--7-9-7-5-4-||
E||----7--5-7-8--7---7-5-7-8--8--7-5-----7-5-7-8--7--5-7-5-3-2-||

e||--------------------------------------------------------------------------------||
B||--12---------------------------------------12-----------------------------------||
G||------9-----9-11-9--9----9-11-12-11-----------9----9-11-9--12-14-12-11-----9-11-||
D||---------12-----------12------------------------12----------------------12------||
A||--------------------------------------------------------------------------------||
E||--------------------------------------------------------------------------------||

e||--------------------------------------------||
B||--------------------------------------------||
G||------------------------------/-------------||
D||--9/------------9/----7--10---/--------7-10-||
A||--7/-2---5--7---7/-2--5--8----/---5--7-5-8--||
E||-----0---3--5------0----------/---3--5------||
                                                             last time
e||-----------------------------------------------------------------------------------||
B||-----------------------------------------------------------------------------------||
G||-----------------------------------------------------------------------------------||
D||------------------------------------9--9-10--9-10-9-10--/--9-7-5-------------------||
A||--00000000000333333333333333555555--7--7-8---7-8--7-8---/--7-5-3---000003333355555-||
E||-----------------------------------------------------------------------------------||

acoustic part

e||--------------------------------------------------------------------------------||
B||--12---------------------------------------12-----------------------------------||
G||------9-----9-11-9--9----9-11-12-11-----------9----9-11-9--12-14-12-11-----9-11-||
D||---------12-----------12------------------------12----------------------12------||
A||--------------------------------------------------------------------------------||
E||--------------------------------------------------------------------------------||

e||------------------------------------------------------------------------------------||
B||--15---------------------------------------15---------------------------------------||
G||------12----12-14-12--12----12-14-15-14-------12----12-14-12--15-17-15-14-----12-14-||
D||---------15--------------15----------------------15------------------------15-------||
A||------------------------------------------------------------------------------------||
E||------------------------------------------------------------------------------------||

e||--------------------------------------------||
B||--------------------------------------------||
G||------------------------------/-------------||
D||--9/------------9/----7--10---/--------7-10-||
A||--7/-2---5--7---7/-2--5--8----/---5--7-5-8--||
E||-----0---3--5------0----------/---3--5------||

e||-------------------------------||
B||-------------------------------||
G||-------------------------------||
D||--12-11-12-14-12-11--9-9-9--9~-||
A||--10-9--10-12-10-9---7-7-7--7~-||
E||-------------------------------||
Добавлено: 08.06.2013
Вам также может быть интересно:
Другие материалы по этой песне:
  • Аккорды и текст

Страница создана 08.06.2013
http://primanota.ru/varg/wir-sind-die-woelfe-chords.htm
Привет, Гость.
Предлагаем пройти революционный курс по гитаре.
Подарок от PrimaNota.Ru, забирай!