PrimaNota.ru - самый крупный в мире бесплатный архив песенных текстов, аккордов, табулатур и нот


Varg - Rotkppchen - таба, видео

Регистрация Запомнить меня
Войти через:  Facebook Google Twitter Vk Yandex Mail.ru

Varg - Rotkppchen - таба, видео

Печатать
Просмотров: 122
Intro:               
e|----------------|----------------|----------------|----------------|
b|----------------|----------------|----------------|----------------|
g|----------------|----------------|----------------|----------------|
D|----4---4---5---|2-------2-------|2---2---4---2---|0---0-----------|
A|2---------------|----5-------0---|----------------|----------------|
E|----------------|----------------|----------------|----------------|


e|----------------|----------------|----------------|----------------|
b|----------------|----------------|----------------|----------------|
g|----------------|----------------|----------------|----------------|
D|----4---4---5---|2-------2-------|----------------|----------------|
A|2---------------|----5-------0---|2---4---5---2---|0---2-----------|
E|----------------|----------------|----------------|----------------|
Добавлено: 21.06.2013
Другие материалы по этой песне:

Страница создана 21.06.2013
http://primanota.ru/varg/rotkppchen-chords.htm
Привет, Гость.
Предлагаем пройти революционный курс по гитаре.
Подарок от PrimaNota.Ru, забирай!