PrimaNota.ru - самый крупный в мире бесплатный архив песенных текстов, аккордов, табулатур и нот


vant - Parking Lot - таба, видео

Регистрация Запомнить меня
Войти через:  Facebook Google Twitter Vk Yandex Mail.ru

vant - Parking Lot - таба, видео

Печатать
Просмотров: 49
Уроки эстрадного вокала в Санкт-Петербурге
Tab by Alex Perkins

Band Name: Vant
Song Name: Parking Lot
Tuning: E Standard

This is my first tab done by ear, Listen to the song for timings.
I will name each bit something then write the structure at the bottom,
so learn each part and play to the structure. If I get anything wrong
please let me know so I can fix it. If you need a visual reference here
is me covering it on my YouTube.

https://www.youtube.com/watch?v=qE981Fs04j0

Main Riff (Only Played at the beginning of the song)       2nd version of the Main Riff
-----------------------------------|----------------------------------------------------|
--------5-2-2-5-5-2-2--------------|--------5-2-2-5-5-2-2-5-2-2-2-2-2-2-----------------|
--------6-3-3-6-6-3-3--------------|--------6-3-3-6-6-3-3-6-3-3-2-2-3-3-----------------|
--------7-4-4-7-7-4-4--------------|--------7-4-4-7-7-4-4-7-4-4-2-2-4-4-----------------|
--------7-4-4-7-7-4-4--------------|--------7-4-4-5-7-4-4-7-4-4-0-0-4-4-----------------|
--------5-2-2-5-5-2-2--------------|--------5-2-2-5-5-2-2-5-2-2-----2-2-----------------|

First Lead part (Loosely tabbed out, listen for timings) 
---------------------------------------------------------------------------------------|
---------------------------------------------------------------------------------------|
--11----11/7---7--7/4------------------------------------------------------------------|
--------------------------7--9--7---7---7---9---7---4----------------------------------|
---------------------------------------------------------------------------------------|
---------------------------------------------------------------------------------------|


Verse
---------------------------------------------------------------------------------------|
---------------------------------------------------------------------------------------|
-7-4-2---------------------------------------------------------------------------------|
-7-4-2-4-------------------------------------------------------------------------------|
-5-2-0-4-------------------------------------------------------------------------------|
-------2-------------------------------------------------------------------------------|

Intro
---------------------------------------------------------------------------------------|
---------------------------------------------------------------------------------------|
-6-7-----------------------------------------------------------------------------------|
-6-7-----------------------------------------------------------------------------------|
-4-5-----------------------------------------------------------------------------------|
---------------------------------------------------------------------------------------|

Chorus
---------------------------------------------------------------------------------------|
---------------------------------------------------------------------------------------|
--6-7-2-2------------------------------------------------------------------------------|
--6-7-2-2------------------------------------------------------------------------------|
--4-5-0-0------------------------------------------------------------------------------|
---------------------------------------------------------------------------------------|

Bridge
---------------------------------------------------------------------------------------|
---------------------------------------------------------------------------------------|
--7-4-2-2------------------------------------------------------------------------------|
--7-4-2-2------------------------------------------------------------------------------|
--5-2-0-0------------------------------------------------------------------------------|
---------------------------------------------------------------------------------------|

Intro x1 - Palm Mute
Main Riff x1  (1st version)
Intro x1 - Palm Mute
Main Riff x1     (1st)
Verse x4 - Palm Mute
Main Riff x2   (2nd Version)
Chorus x2
Main Riff x1     (2nd)
Verse x8 - first 2 palm mute |Solo
Main Riff x2    (2nd)        |Solo
Bridge x4
Main Riff x2   (2nd)
Добавлено: 30.05.2016
Вам также может быть интересно:
Другие материалы по этой песне:
  • Аккорды и текст

Страница создана 30.05.2016
http://primanota.ru/vant/parking-lot-chords.htm
Привет, Гость.
Предлагаем пройти революционный курс по гитаре.
Подарок от PrimaNota.Ru, забирай!