PrimaNota.ru - самый крупный в мире бесплатный архив песенных текстов, аккордов, табулатур и нот


vant - Do You Know Me - таба, видео

Регистрация Запомнить меня
Войти через:  Facebook Google Twitter Vk Yandex Mail.ru

vant - Do You Know Me - таба, видео

Печатать
Просмотров: 17
-------------------------------------------------------------------------------
                            DO YOU KNOW ME? - VANT
-------------------------------------------------------------------------------
Tabbed by: Ciaran O'Flynn
E-mail:

Tuning:Standard
Find Rhythm by listening to the song

Intro

e|---------------------------------------------------------------------------|
B|---------------------------------------------------------------------------|
G|---------------------------------------------------------------------------|
D|-----11-11--x----11-11-11-x------------------------------------------------|
A|-----11-11--x----11-11-11-x------------------------------------------------|
E|-----9--9---x----9--9--9--x------------------------------------------------|

Verse
e|----------x--0--0--x------x-----------------------------------------------------|
B|----------x--0--0--x------x-----------------------------------------------------|
G|----------x--1--1--x--4-4-x-----------------------------------------------------|
D|------7-7-x--2--2--x--4-4-x--4-4------------------------------------------------|
A|------7-7-x--2--2--x--2-2-x--4-4------------------------------------------------|
E|------5-5-x--0--0--x------x--2-2------------------------------------------------|

Chorus

e|-------------0--------------------------------------------------------------|
B|-------------0--------------------------------------------------------------|
G|-------------1-------4------------------------------------------------------|
D|----7--------2-------4------4-----------------------------------------------|
A|----7--------2-------2------4-----------------------------------------------|
E|----5--------0--------------2-----------------------------------------------|
Добавлено: 30.05.2016
Вам также может быть интересно:
Другие материалы по этой песне:
  • Аккорды и текст

Страница создана 30.05.2016
http://primanota.ru/vant/do-you-know-me-chords.htm
Привет, Гость.
Предлагаем пройти революционный курс по гитаре.
Подарок от PrimaNota.Ru, забирай!