PrimaNota.ru - самый крупный в мире бесплатный архив песенных текстов, аккордов, табулатур и нот


Vanilla Sky - Devastante - текст песни, таба, видео

Регистрация Запомнить меня
Войти через:  Facebook Google Twitter Vk Yandex Mail.ru

Vanilla Sky - Devastante - текст песни, таба, видео

Печатать
Просмотров: 272
Devastante  -   Vanilla Sky   -  Tab


first guitar  (part1)				      (part2)
------------------------------------------------      -------------------|
----------5-------------5---------5----------5--      ----------5--------|
------2--------------2---------2----------2-----3v    -------4-----------| 4v
--4-------------------------0----------0--------      ----2--------------|
-----------------4------------------------------      -------------------|
------------------------------------------------      -------------------|

(second time) Ieri ti ho persa......

first guitar  (part3)				 (part4)
------------------------------------------      ------------------|
--------5---------5--------5----------5---      ---------5--------|
-----2---------2--------2----------2------3v    ------4-----------| 4v
--4------------------0----------0---------      ---2--------------|
-----------4------------------------------      ------------------|
------------------------------------------      ------------------|

second guitar (part4)
------4-----2------------4----2----------5----2----------7-----2------------|
------------------2---------------2----------------2----------------2-------|
----------------------------------------------------------------------------|
----------------------------------------------------------------------------|
----------------------------------------------------------------------------|
----------------------------------------------------------------------------|


Re Fa#- Mi Re Fa#- Mi Re
Tornerai, su di me, devastante....

first guitar  (part1)				      (part2)
------------------------------------------------      -------------------|
----------5-------------5---------5----------5--      ----------5--------|
------2--------------2---------2----------2-----3v    -------4-----------| 4v
--4-------------------------0----------0--------      ----2--------------|
-----------------4------------------------------      -------------------|
------------------------------------------------      -------------------|

(second time) Ieri ti ho persa......

first guitar  (part3)				 (part4)
------------------------------------------      ------------------|
--------5---------5--------5----------5---      ---------5--------|
-----2---------2--------2----------2------3v    ------4-----------| 4v
--4------------------0----------0---------      ---2--------------|
-----------4------------------------------      ------------------|
------------------------------------------      ------------------|

Re Fa#- Mi Re Fa#- Mi Re
Tornerai, su di me, devastante....

Re Fa#-  Re  Fa#-  Mi  Re
Dentro ogni vuoto di suono che c'è....


                    3v                                      3v               tutto 4v
--------------------|-----------------|---------------------|-----------------|-----|
----------------5---|-------------5---|-----------------5---|------------5----|-----|
----------2---------|--------2--------|-----------2---------|--------2--------|-----|
-----0--------------|----2------------|-----4---------------|----2------------|-----|
--------------------|-----------------|---------------------|-----------------|-----|
--------------------|-----------------|---------------------|-----------------|-----|


Re Fa#- Mi Re Fa#- Mi Re
Tornerai, su di me, devastante....


Re  Fa#-  Mi   Re  Fa#-

-------------------------------------------------------
Devastante  - Vanilla Sky  -  Lyrics


Ieri ti ho persa e non so perchè
le luci basse fan crescere
non ero niente non ero in me
come stai?

tienimi stretto e riscaldami
parlami piano e sorprendimi
ci penso sempre ma non sei più qui
non sei qui

tornerai
su di me
devastante
ma avrò fatto i miei conti col mai
ora sai che non mente
questo senso di vuoto in me

ieri ti ho persa e non so perchè
le luci basse fan scegliere
le strade spesso son chiuse lo sai
mi manchi come mai
non c'è modo ormai
dentro ogni cosa mi scivoli e poi
toglie il respiro che non qui qui
con me

tornerai
su di me
devastante
ma avrò fatto i miei conti col mai
ora sai che non mente
questo senso di vuoto in me

dentro ogni vuoto di suono che c'è
dietro ogni limite in me
c'è qualcosa che non si dimentica

tornerai
su di me
devastante
ma avrò fatto i miei conti col mai
ora sai cosa o niente
che mi avvolge non so perchè
Добавлено: 10.06.2012
Другие материалы по этой песне:
  • Аккорды и текст

Страница создана 10.06.2012
http://primanota.ru/vanilla-sky/devastante-chords.htm
Привет, Гость.
Предлагаем пройти революционный курс по гитаре.
Подарок от PrimaNota.Ru, забирай!