PrimaNota.ru - самый крупный в мире бесплатный архив песенных текстов, аккордов, табулатур и нот


Vanderbuyst - The Butchers Knife - бас-таба, видео

Регистрация Запомнить меня
Войти через:  Facebook Google Twitter Vk Yandex Mail.ru

Vanderbuyst - The Butchers Knife - бас-таба, видео

Печатать
Просмотров: 83
-------------------------------------------------------------------------------
                            The Butcher's Knife - Vanderbuyst
-------------------------------------------------------------------------------
Tabbed by: Gijs Nijholt
E-mail: gijserr@gmail.com

Tuning:EADG

Intro
G|----------------------------------------------------------------------------|
D|----------------------------------------------------------------------5-5--3|
A|----------------------------------------------------------------------------|
E|---5----5----5----5----5----5----5----5----5----5----5----5----5----5-------|


G|---------------------------------------------------------------------------|
D|---------------------------------------------------------------------------|
A|---------------------------------------------------------------------------|
E|5--5--5--5--5--5--5--5--5--5--5--5--5--5--1--1--5--5--5--5--5--5--5--5--5--|

G|---------------------------------------------------------------------------|
D|---------5-5-3-------------------------------------------------------------|
A|---------------------------------------------------------------------------|
E|5--5--5--------------------------------------------------------------------|

Verse
G|---------------------------------------------------------------------------|
D|---------------------------------------------------------------------------|
A|---------------------------------------------------------------------------|
E|5-5-5-5-5-5-5-5-5-5-5-5-5-5-5-5-5-5-5-3-3-3-1-1-1-1-1-1-1-1-5-5-5-5-5-5-5-5|

G|---------------------------------------------------------------------------|
D|---------------------------------------------------------------------------|
A|----------------------------------------------5-5-5-5-5-5-5-5-5-5-5-5-5-5-5|
E|5-5-5-5-5-5-5-5-5-5-5-5-3-3-3-1-1-1-1-1-1-1-1------------------------------|

G|---------------------------------------------------------------------------|
D|---------------------------------------------------------------------------|
A|5-5-5-5-5-5-5-5-5-3-3-3-5-5-5-5--------------------------------------------|
E|--------------------------------5-5-5-5-5-5-5-5-5-5-5-5-5-5-5-5-5-5-5-3-3-3|

Pre-Chorus
G|---------------------------------------------------------------------------|
D|---------------------------------------------------------------------------|
A|---------------------------------------------------------------------------|
E|1-1-1-1-3-3-3-3-1-1-1-1-1-5------------------------------------------------|

Chorus
G|---------------------------------------------------------------------------|
D|-----------------------------------------------------------5-53------------|
A|---------------------------------------------------------------------------|
E|-5-5-5-5-5-5-5-5-5-5-5-5-5-3-1-1-1-5-5-5-5-5-5-5-5-5-5-5-5-----------------|



Verse
G|---------------------------------------------------------------------------|
D|---------------------------------------------------------------------------|
A|---------------------------------------------------------------------------|
E|5-5-5-5-5-5-5-5-5-5-5-5-5-5-5-5-5-5-5-3-3-3-1-1-1-1-1-1-1-1-5-5-5-5-5-5-5-5|

G|---------------------------------------------------------------------------|
D|---------------------------------------------------------------------------|
A|----------------------------------------------5-5-5-5-5-5-5-5-5-5-5-5-5-5-5|
E|5-5-5-5-5-5-5-5-5-5-5-5-3-3-3-1-1-1-1-1-1-1-1------------------------------|

G|---------------------------------------------------------------------------|
D|---------------------------------------------------------------------------|
A|5-5-5-5-5-5-5-5-5-3-3-3-5-5-5-5--------------------------------------------|
E|--------------------------------5-5-5-5-5-5-5-5-5-5-5-5-5-5-5-5-5-5-5-3-3-3|

Pre-Chorus
G|---------------------------------------------------------------------------|
D|---------------------------------------------------------------------------|
A|---------------------------------------------------------------------------|
E|1-1-1-1-3-3-3-3-1-1-1-1-1-5------------------------------------------------|

Chorus
G|---------------------------------------------------------------------------|
D|-----------------------------------------------------------5-53------------|
A|---------------------------------------------------------------------------|
E|-5-5-5-5-5-5-5-5-5-5-5-5-5-3-1-1-1-5-5-5-5-5-5-5-5-5-5-5-5-----------------|

Solo
G|---------------------------------------------------------------------------|
D|---------------------------------------------------------------------------|
A|------------------------------5-5-5-5-5-5-5--------------------------------|
E|--3-3-3-3-3-3-3-5-5-5-5-5-5-5---------------5-5-5-5-5-5-5-3-3-3-3-3-3-3-5-5|


G|---------------------------------------------------------------------------|
D|---------------------------------------------------------------------------|
A|---------5-5-5-5-5-5-------------------------------------------------------|
E|-5-5-5-5-------------1-1-1-3-3-3-5-5-5-5-5-5-1-1-1-5-5-1-3-3---------------|


Verse
G|---------------------------------------------------------------------------|
D|---------------------------------------------------------------------------|
A|---------------------------------------------------------------------------|
E|5-5-5-5-5-5-5-5-5-5-5-5-5-5-5-5-5-5-5-3-3-3-1-1-1-1-1-1-1-1-5-5-5-5-5-5-5-5|

G|---------------------------------------------------------------------------|
D|---------------------------------------------------------------------------|
A|----------------------------------------------5-5-5-5-5-5-5-5-5-5-5-5-5-5-5|
E|5-5-5-5-5-5-5-5-5-5-5-5-3-3-3-1-1-1-1-1-1-1-1------------------------------|

G|---------------------------------------------------------------------------|
D|---------------------------------------------------------------------------|
A|5-5-5-5-5-5-5-5-5-3-3-3-5-5-5-5--------------------------------------------|
E|--------------------------------5-5-5-5-5-5-5-5-5-5-5-5-5-5-5-5-5-5-5-3-3-3|

Pre-Chorus
G|---------------------------------------------------------------------------|
D|---------------------------------------------------------------------------|
A|---------------------------------------------------------------------------|
E|1-1-1-1-3-3-3-3-1-1-1-1-1-5------------------------------------------------|

Chorus UNTIL THE END
G|---------------------------------------------------------------------------|
D|-----------------------------------------------------------5-53------------|
A|---------------------------------------------------------------------------|
E|-5-5-5-5-5-5-5-5-5-5-5-5-5-3-1-1-1-5-5-5-5-5-5-5-5-5-5-5-5-----------------|



| /  slide up
| \  slide down
| h  hammer-on
| p  pull-off
| ~  vibrato
| +  harmonic
| x  Mute note
===============================================================================
Добавлено: 05.08.2015
Другие материалы по этой песне:
  • Аккорды и текст

Страница создана 05.08.2015
http://primanota.ru/vanderbuyst/butchers-knife-chords.htm
Привет, Гость.
Предлагаем пройти революционный курс по гитаре.
Подарок от PrimaNota.Ru, забирай!