PrimaNota.ru - самый крупный в мире бесплатный архив песенных текстов, аккордов, табулатур и нот


Van Walker - River Styx - аккорды и текст, видео

Регистрация Запомнить меня
Войти через:  Facebook Google Twitter Vk Yandex Mail.ru

Van Walker - River Styx - аккорды и текст, видео

Печатать
Просмотров: 47
Уроки эстрадного вокала в Санкт-Петербурге
River Styx
Van Walker
Van Walker - River Styx

From: The Last Record Store (2009)

Tuning: Standard

Nb. This song is played with two chords per measure in all
instances other than when you see the same chord twice in
succession, which represents a full measure.

Chords Used

   G5 C9  Dsus4 G/E Em7 G5/F#
-|-3--3---3-----3---3---3----|
-|-3--3---3-----3---3---3----|
-|-0--0---2-----0---0---0----|
-|-0--2---0-----X---2---0----|
-|-2--3---x-----2---2---x----|
-|-3--x---x-----0---0---2----|

Intro

G5 C9 Dsus4 G5 G/E G/E C9 C9

G5 C9 Dsus4 Em7 C9 G/F# G5G5

Slide solo (played over the above chord)

-|--7--8--10-8-7--\3------7---\8--10-8-7--7-\5-5\3-3----|
-|------------------------------------------------------|
-|------------------------------------------------------|
-|------------------------------------------------------|
-|------------------------------------------------------|
-|------------------------------------------------------|

Chorus

G5       C9             Dsus4 G5
Ten long nights on the River Styx
  G/E    G/E    C9  C9
I waited for my girl
G5                C9          Dsus4 Em7
Just to hear her voice but I never did
      C9      G/F#    G5  G5
And I drifted down to Hell
G5    C9      Dsus4    G5
Every night i wait for her
       G/E      G/E    C9   C9
On the far side of the shore
G5           C9           Dsus4       Em7
Little did i know she was waiting for me
      C9   G/F#     G5  G5
While I waited for her

Slide Solo 2 (same chords as intro)

-|-8/10--8--10\8-7----15-----10/12---7--8--10\8-7--12--10--15-----|
-|----------------------------------------------------------------|
-|----------------------------------------------------------------|
-|----------------------------------------------------------------|
-|----------------------------------------------------------------|
-|----------------------------------------------------------------|

Verse 1

  G5           C9              Dsus4        G5
I drifted in a bucket that I found on the shore
        G/E      G/E     C9  C9
But i'm sure was not man made
    G5            C9            Dsus4   Em7
And in my fist a locket of the girl I adore
         C9    G/F#    G5   G5
That had laid upon her grave

     G5        C9          Dsus4   G5
Now some might say it was all my fault
     G/E G/E       C9   C9
That I deserved it all
    G5      C9           Dsus4 Em7
For I'd sat smoking in a paper boat
        C9       G/F#    G5   G5
And I'd burnt it full of holes

Chorus

    G5       C9      Dsus4 G5
Now ten long nights on the River Styx
  G/E    G/E    C9  C9
I waited for my girl
G5                C9          Dsus4 Emin7
Just to hear her voice but i never did
      C9      G/F#    G5  G5
And I drifted down to Hell

Slide Solo 3 (same chords as intro)

-|------15--15\14--14\12-10-8\7--7/8\7--------------|
-|-12/15--------------------------------10-8-10-5---|
-|--------------------------------------------------|
-|--------------------------------------------------|
-|--------------------------------------------------|
-|--------------------------------------------------|

-|---------------------10/12--15/17-15-12\10/12-15---|
-|-------12\10--13\12--------------------------------|
-|-11/12---------------------------------------------|
-|---------------------------------------------------|
-|---------------------------------------------------|
-|---------------------------------------------------|

Verse 2

     G5    C9            Dsus4      G5
Well I got talking to a two-headed dog
    G/E    G/E    C9  C9
And it all became clear
     G5               C9        Dsus4       Em7
They said they saw a girl lost walking the shore
        C9   G/F#   G5  G5
But she ran away in fear

   G5    C9       Dsus4    G5
So every night I wait for her
       G/E       G/E    C9   C9
On the dark side of the shore
    G5           C9           Dsus4       Em7
But little did I know she was waiting for me
      C9   G/F#    G5
While I waited for her

Chorus

G5       C9             Dsus4 G5
Ten long nights on the River Styx
  G/E    G/E    C9  C9
I waited for my girl
G5                C9          Dsus4 Em7
Just to hear her voice but I never did
      C9      G/F#    G5
And I drifted down to Hell
Добавлено: 18.07.2015
Другие материалы по этой песне:
  • Аккорды и текст

Страница создана 18.07.2015
http://primanota.ru/van-walker/river-styx-chords.htm
Привет, Гость.
Предлагаем пройти революционный курс по гитаре.
Подарок от PrimaNota.Ru, забирай!