PrimaNota.ru - самый крупный в мире бесплатный архив песенных текстов, аккордов, табулатур и нот


Van Walker - Milk And Honey - аккорды и текст, видео

Регистрация Запомнить меня
Войти через:  Facebook Google Twitter Vk Yandex Mail.ru

Van Walker - Milk And Honey - аккорды и текст, видео

Печатать
Просмотров: 110
Milk And Honey
Van Walker
Milk & Honey - Van Walker

From: The Celestial Railroad (2008)

Tabbed by Jucko

Intro

E -5/7-----5-----3-----2------3-----3-----3-----3-----|
B -----0-----0-----0-----0------0-----0-----0-----0---|
G -0-----0-----0-----0-----0--0---0-----0-0---0-----0-|
D ----------------------------------------------------| x4
A ----------------------------------------------------|
E ----------------------------------------------------|

   Fig. 1 
E|-------3-----------3--------------------------------|
B|---------0-----------0-----------0----5-----0-------|
G|-----0-----0-----0-----0-----0------0-----0-----0---|
D|-4h5---------4h5---------4h5-----5------5-----5-----|
A|----------------------------------------------------|
E|----------------------------------------------------|
 | G                                      -           | 
E|-------3-----------3-----5s7-----10-7--5s7-----10-7-|
B|---------0-----------0-------0-------------0--------|
G|-----0-----0-----0-----0-0-----0-------------0------| 
D|-4h5---------4h5------------------------------------| 
A|----------------------------------------------------| x 2
E|----------------------------------------------------|

Verse 1

G
Wild nights drinking in the country
      C
On my own, off me head
G
Gone are the days of milk & honey
        C
Honey's gone, Honey's dead

Chorus

    D          G               C              D
The idleness I choose till I'm running out of booze
            G               C
Responsibility don't mean a thing
        D               G
There's nothing left to do
        C
But get drunk and think of you
    D       C                D       
And I won't regret it in the morning

Interlude 

Fig. 1

Verse 2

G
Wild nights sleeping in the country
      C
On my own, hope be brave
G
Gone are the days of chasing money
        C
Money's gone, there's nothing saved

Chorus

    D          G               C              D
The idleness I choose till I'm running out of booze
            G               C
Responsibility don't mean a thing
        D               G
There's nothing left to do
        C
But get drunk and think of you
    D       C                D       
And I won't regret it in the morning

Interlude 

Fig. 1 x 2 

... then the following chord progression

G// C//// D////

C/ G/ D// G////

Verse 3

G
Wild nights dreaming in the country
      C
Of my home, so far away
G
Gone are the days of chasing Annie
       C
Annie's gone, little Annie May

Chorus

    D          G               C              D
The idleness I choose till I'm running out of booze
            G               C
Responsibility don't mean a thing
        D               G
There's nothing left to do
        C
But get drunk and think of you
    D       C                D       
And I won't regret it in the morning

Outro 

Fig. 1 

Finish on G
Добавлено: 23.03.2016
Другие материалы по этой песне:
  • Аккорды и текст

Страница создана 23.03.2016
http://primanota.ru/van-walker/milk-and-honey-chords.htm
Привет, Гость.
Предлагаем пройти революционный курс по гитаре.
Подарок от PrimaNota.Ru, забирай!