PrimaNota.ru - самый крупный в мире бесплатный архив песенных текстов, аккордов, табулатур и нот


Van Walker - The Last Record Store - таба, видео

Регистрация Запомнить меня
Войти через:  Facebook Google Twitter Vk Yandex Mail.ru

Van Walker - The Last Record Store - таба, видео

Печатать
Просмотров: 138
The Last Record Store - Van Walker

From the album The Last Record Store (2009)

Tabbed by: Juck

Tuning: EADGBe

Capo: 2nd Fret 

Lead in    Verses/Interlude  
           C               Fmaj7   C       G         A       F       G
|------------0---0---0-------0---0---0---0---1-----1---0---0---1---1---3------| 
|------------1---1---1-------1---1---1---1---0-----0---1---1---1---1---0------|
|------------0---0---0-------2---2---0---0---0-----0---2---2---2---2---0------| 
|------------2---2---2-0-2-3-3---3---2---2---0-----0---2---2---3---3---0------|
|------0-2-3-------3-----------3---3-----------0h2---0-------------------0-2--| 
|----3---------3-----------------------3---3-------------0---1---1---3--------| 
 
  C               Fmaj7   C       G         A       F       G
|---0---0---0-------0---0---0---0---3-----1---0---0---1---1---3--3-3-3-| 
|---1---1---1-------1---1---1---1---0-----0---1---1---1---1---0--0-0-0-|
|---0---0---0-------2---2---0---0---0-----0---2---2---2---2---0--0-0-0-|
|---2---2---2-0-2-3-3---3---3---2---0-----0---2---2---3---3---0--0-0-0-|
|-3-------3-----------3---3-----------0h2---0--------------------------|
|-----3-----------------------3---3-------------0---1---1---3----------|

Chorus 
  Am                        Em                     C        
|----0--0-0-0-----0--0-0-0-----0--0-0-0--0--0--0---0--0-0-0--0-0--
|----1--1-1-1-----1--1-1-1-----1--1-1-1--0--0--1---1--1-1-1--1-1--
|----2--2-2-2-----2--2-2-2-----0--0-0-0--0--0--0---0--0-0-0--0-0--
|----2--2-2-2-----2--2-2-2-----2--2-2-2--2--2--2---2--2-2-x--x-x--
|-0------------0---------------2--2-2-2--2--2--2---3--3-3-2--2-2--
|---------------------------0-------------------------------------

(1st Chorus end)
 F
---1--1-1-1---1--1-1-1---1--1-1-1-1-1-------|
---1--1-1-1---1--1-1-1---1--1-1-1-1-1-------|
---2--2-2-2---2--2-2-2---2--2-2-2-2-2-------|
---3--3-3-3---3--3-3-3---3--3-3-3-3-3-------|
----------------------------------------0-2-|
-1----------1----------1--------------3-----|

(2nd & 3rd Chorus End)
 Dm          Gaug/B      F 
---1--1-1-1----0--0-0-0----1--1-1-1----1--1-1-1-|
---3--3-3-3----0--0-0-0----1--2-2-2----1--1-1-1-|
---2--2-2-2----0--0-0-0----2--3-3-3----2--2-2-2-|
-0-----------2-----------3-3--3-3-3--3-3--3-3-3-| (x 2)
------------------------------------------------|
------------------------------------------------|

Verse 

C           
Who's gonna make ya calls 
Fadd7             C      
When ya lines are down
G                    Am
Who's gonna boil ya water when you 
F                G
Coffee beans are ground
C 
And who's gonna wash ya clothes  
    Fmaj7           C    
And hang 'em on the line
G                      Am
Who's gonna light your cigarettes when your 
F                 G
Lighter you can't find

Chorus 

    Am
Not me
    Em Em6 Em Em6
Not me
        C  C/B F
It aint me any more

Verse 

    C            
And who's gonna wake you up 
Fmaj7            C      
When you over    sleep
G                    Am
Who's gonna keep them secrets when there's 
F                G
Secrets you can't keep
C  
And who's gonna break ya fall when 
Fmaj7             C
You crash back to earth
G                   Am
Who's gonna welcome you home when they've 
F               G
Left you in the lurch

Chorus 

    Am
Not me
    G 
Not me 
        C  C/B F
It aint me any more
Dm  Gaug/B          F 
  I done that one before
        Dm                 Gaug/B         
I'll be hiding under those record racks at
    F    G      C  
The Last Record Store

Interlude (Verse and Chorus voicing/patterns)

C  C  Fmaj7 C

G  A  F  G      x 2

Then....

Am  Am  G  G     

C   F   F

Bridge
 
Dm Gaug/B            F
   For all the lines are fading 
Dm Gaug/B            G   
   Back to what they were
Dm Gaug/B            F
   And everybody's aging 
     Dm                   Gaug/B      F
  The exact same way they were today, yesterday
                G
  And the day before

Verse

C
Who's gonna tuck you in 
Fmaj7        C
To ya bed at night 
G               Am
Who's gonna lie through their teeth and tell you 
F                    G
Everything will be alright and 
C
Who's gonna bit their tongue and 
Fmaj7          C
Listen to your lies
G                    Am
Who's gonna wipe the floor when all those 
F                         G
Crocodile tears have been cried

Chorus 

    Am
Not me
    G 
Not me 
        C  C/B F
It aint me any more
Dm  Gaug/B          F 
  I done that one before
        Dm               Gaug/B         
I'll be hanging out with Alec at the
F    G      C  
Last Record Store

C  C  Fmaj7 C

G  A  F  G 

Finish on C
     
 
The End
Добавлено: 26.09.2015
Другие материалы по этой песне:
  • Аккорды и текст

Страница создана 26.09.2015
http://primanota.ru/van-walker/last-record-store-chords.htm
Привет, Гость.
Предлагаем пройти революционный курс по гитаре.
Подарок от PrimaNota.Ru, забирай!