PrimaNota.ru - самый крупный в мире бесплатный архив песенных текстов, аккордов, табулатур и нот


Van Walker - All The Leaves Are Shaking - таба, видео

Регистрация Запомнить меня
Войти через:  Facebook Google Twitter Vk Yandex Mail.ru

Van Walker - All The Leaves Are Shaking - таба, видео

Печатать
Просмотров: 79
All the Leaves Are Shaking - Van Walker

From: The Celestial Railroad (2008)

Capo - 2nd

Intro/Verse/Chorus (just keep on playing this pattern...)
  
   1   &   a   2   &   a   3   &   a   4   &   a   
E|-------3-----------3-------3---3-----------3-----|
B|-----------3-----------3-----------3-----------3-|
G|-----0---0-------0---0---0---0---0-------0---0---|
D|---------------------0h2-0-----------------------|
A|---------2---3-----------------------------------|
E|-3-------------------------------2---3-----------|

   1   &   a   2   &   a   3   &   a   4   &   a   
E|-------3-----------3-----------3-------3---3-----|
B|-----------3-----------3-----------3-----------3-|
G|-----0---0-------0---0-------0---0---0---0---0---|
D|---------------------------------0h2-0-----------|
A|---------------------2---3-----------------------|
E|-3-----------0-------------------------------2---|

   1   &   a   2   &   a   3   &   a   4   &   a   
E|-------3-----------3-------3-----------------3---|
B|-----------3-----------3-------3---3-----3-------|
G|-----0---0-------0---0-------2---2-----0---0-----|
D|---------------------0h2-0-----------------------|
A|---------2--3------------------------------------|
E|-3-----------------------------------0-----------|
                                                 ... well                       
   1   &   a   2   &   a   3   &   a   4   &   a   
E|-------3-----------3-----------3-----------3-----|
B|-----------3-----------3-----------3-----------3-|
G|-----0---0-------0---0-------0---0-------0---0---|
D|-------------------------------------------------|
A|---------2--3--------0h2-0-----------------------|
E|-3-----------------------------------3-----------|


Lay down your troubles and take off your mask 
All the leaves are shaking 
I'm in the mood for a little romance 
And if you're willing I'm waiting

Hand me that bottle and kick off your shoes 
All the leaves are shaking 
Shall we go drink it out under the moon 
If you're willing I'm waiting 

Throw down that blanket out under the tree 
All the leaves are shaking 
Nowhere on this planet that I'd rather be 
If you're willing I'm waiting

Well yr eyes are like water and yr breath's in the air 
All the leaves are shaking 
The sky is on fire but it don't compare 
And if you're willing I'm waiting
Добавлено: 18.06.2015
Другие материалы по этой песне:
  • Аккорды и текст

Страница создана 18.06.2015
http://primanota.ru/van-walker/all-leaves-are-shaking-chords.htm
Привет, Гость.
Предлагаем пройти революционный курс по гитаре.
Подарок от PrimaNota.Ru, забирай!