PrimaNota.ru - самый крупный в мире бесплатный архив песенных текстов, аккордов, табулатур и нот


Van She - Idea Of Happiness - бас-таба, видео

Регистрация Запомнить меня
Войти через:  Facebook Google Twitter Vk Yandex Mail.ru

Van She - Idea Of Happiness - бас-таба, видео

Печатать
Просмотров: 114
Уроки эстрадного вокала в Санкт-Петербурге
verse (0:16)
|-------------------------------------------------------------------|
|-7-7-7-7-777-6-6-6-6-666-9-9-9-9-999-4-4-4-4-444-------------------|
|-------------------------------------------------------------------|
|-------------------------------------------------------------------|  x4

bridge (0:46)
|------------------------------------------------------------------|
|------------------------------------------------------------------|
| -7-7-7-7-7-7-7-7-7-7-7-7-4-4-4-4-4-4-9-9-9-9-9-9-9---------------|
|------------------------------------------------------------------|

chorus (0:53)
|--------------------------------------|
|-777777777777444444999999-------------|
|--------------------------------------|
|--------------------------------------|

|--------------------------------------|
|-777777777777999999444444-------------|
|--------------------------------------|
|--------------------------------------|

|--------------------------------------|
|-777777777777444444999999-------------|
|--------------------------------------|
|--------------------------------------|

Verse (1:16)
|-------------------------------------------------------------------|
|-7-7-7-7-777-6-6-6-6-666-9-9-9-9-999-4-4-4-4-444-------------------|
|-------------------------------------------------------------------|
|-------------------------------------------------------------------|  x5

bridge (1:54)
|------------------------------------------------------------------|
|------------------------------------------------------------------|
| -7-7-7-7-7-7-7-7-7-7-7-7-4-4-4-4-4-4-9-9-9-9-9-9-9---------------|
|------------------------------------------------------------------|

chorus (2:01)
|--------------------------------------|
|-777777777777444444999999-------------|
|--------------------------------------|
|--------------------------------------|

|--------------------------------------|
|-777777777777999999444444-------------|
|--------------------------------------|
|--------------------------------------|

|--------------------------------------|
|-777777777777444444999999-------------|
|--------------------------------------|
|--------------------------------------|

bridge 2 (2:23)
|----------------------------|
|----------------------------|
|----------------------------|
|-6------4------9------7-----|  x2

|-------------------------------------------------------|
|-------------------------------------------------------|
|-------------------------------------------------------|
|-77777777444444449999999999999999----------------------|  x2

|----|
|----|
|----|
|-7~| x1

bridge (2:57)
|------------------------------------------------------------------|
|------------------------------------------------------------------|
| -7-7-7-7-7-7-7-7-7-7-7-7-4-4-4-4-4-4-9-9-9-9-9-9-9---------------|
|------------------------------------------------------------------|

chorus (3:01)
|--------------------------------------|
|-777777777777444444999999-------------|
|--------------------------------------|
|--------------------------------------|

|--------------------------------------|
|-777777777777999999444444-------------|
|--------------------------------------|
|--------------------------------------|

|--------------------------------------|
|-777777777777444444999999-------------|
|--------------------------------------|
|--------------------------------------|

sinonk@hotmail.fr


http://www.vanshe.com/
Добавлено: 17.10.2013
Другие материалы по этой песне:
  • Аккорды и текст

Страница создана 17.10.2013
http://primanota.ru/van-she/idea-of-happiness-chords.htm
Привет, Гость.
Предлагаем пройти революционный курс по гитаре.
Подарок от PrimaNota.Ru, забирай!