PrimaNota.ru - самый крупный в мире бесплатный архив песенных текстов, аккордов, табулатур и нот


Van Morrison - I Will Be Your Lover Too - таба, видео

Регистрация Запомнить меня
Войти через:  Facebook Google Twitter Vk Yandex Mail.ru

Van Morrison - I Will Be Your Lover Too - таба, видео

Печатать
Просмотров: 112
Van Morrison - I'll be your lover too
Tabbed from Ludovic Legros

My Story:
This song is normally played with two guitars, but i'm alone and i wanted to play it whatever the cost! I've searched the tab all over the net and only found the chords. Then I finally decided to tab it myself, with a wav file from the DVD A hard job you can believe me! Well, this adptation for one guitar is a little bit hard to play, but in fact, with training possible. Good luck and mail me if you have some modification or wathever to say about it at ludovic.legros@lycosmail.com !!!



Accord: guitar Eb
Capo on 2nd Fret.

Signs: ^Hammer - ~Slide - () Slowly - § Silence 


|---------------------------0^3-----------------------------|
|-----------------------------------------------------------|
|-----------------------------------------------------------|
|-------0^2------------§-----------§------------------------|
|--0^2-------0^2--3-----------------------------------------|
|-----------------------------------------------------------|
  |---Quick play---|	   |---| - Loud

|-----------------------------------------------------------|
|-----------------------------------------------1-----------|
|-----------------0------------0----------------------------|
|-------0^2--0^2----------§----0^2----§----0^2--------------|
|--0^2---------------3--------------------------------------|
|--------------------------------------------------0--------|
|Quick play|		      |---| - Loud

   I'll be your men...
|------------------------0----------------------------------|
|----------------1---------------1--------------------------|
|----------0----------------0^2-----------------------------|
|-----0^2-----------0^2-------------------------------------|
|--2----------3---------------------------------------------|
|-----------------------------------0-----------------------|

|----------------------------0------------------------------|
|-3---------------1-----------------------------------------|
|------------0------------0---------------------------------|
|-------0^2----------0^2--------0^2-------------------------|
|----2---------3--------------------------------------------|
|------------------------------------0----------------------|


|-0--2--3--2--0-------------------0-------------------------|
|----------------3-----1------------------------------------|
|------------------------------0----------0-----------------|
|-------------------------0^2--------0^2-----0--------------|
|-------------------3---------------------------------------|
|-----------------------------------------------------------|
				 
|-2-----------------2-----------------2---------------------|
|----3-----3-----3-----------1-----------------1------------|
|-------2-----2-----------2--------2--------2---------------|
|----------------------0--------0--------0------------------|
|-----------------------------------------------------------|
|-----------------------------------------------------------|

|----3~5~3-------------0^3^0-----0^3^0-----0^3^0------------|
|----3~5----------------------1---------1-------------------|
|-0--------------0------------------------------------------|
|-2---------0^2---------------------------------------------|
|-2-----------------3---------------------------------------|
|-0---------------------------------------------------------|
|-Loud----|

|-----------7-----7---------------------0--7^8--0--9^10--0--|
|---------5~7-(7)-------------------------------------------|
|------0--------------------------0-------------------------|
|-0^2----------------(0)-----0^2----------------------------|
|------------------------------------3----------------------|
|---------0-------------(0)---------------------------------|
	    
|-12--§--0-----7--12--(7)-----------------------------------|
|-----------8-----------------------------------------------|
|-----------------------------------------------------------|
|-----------------------------------------------------------|
|-----------------------------------------------------------|
|-----------------------------------------------------------|
	|--Loud-----|


|------------0--2~3^7--3--2~3--0----------------3-----------|
|--------------------------------------------------3--------|
|------0-------------------------------0-----2--------------|
|-0^2-----------------------------0^2-----0-----------------|
|---------3-------------------------------------------------|
|-----------------------------------------------------------|


|-------------2-----------3^2-----3^2-----------------------|
|----------------3------------------------------------------|
|----2-----2-----------2--------------------------0---------|
|-0-----0-----------0----------0-------0--§--0^2------------|
|-----------------------------------------------------------|
|-----------------------------------------------------------|


|---------0----------------(0)-----------0--8--0--10--------|
|-------------------------(1)---1-3~5^5---------------------|
|-0--2^4-------------0---(0)--------------------------------|
|-2-------------0^2-----------------------------------------|
|-2----------2----------3-----------------------------------|
|-0---------------------------------------------------------|
|--Loud-----|


|----0--2--3--5--7----------------0--3--0-----0--3--0-------|
|-------------------(1)--------------------1----------------|
|---------------------------0-------------------------------|
|------------------------2----------------------------------|
|------------------------------3----------------------------|
|-0---------------------------------------------------------|


|--------------0-2-3--5--7--5--3---------------(0)-----(0)--|
|1----------------------------------------------------------|
|--------0------------------------0-------------------------|
|---0^2------------------------2-----------(2)-----(2)------|
|------------------------------------3--(3)-----(3)---------|
|-----------0-----------------------------------------------|


|----------3^2--------2^0-------------------------3^2-----0-|
|--------------------------------5^3-------------------3----|
|-------2----------2----------2----------2-----2------------|
|-0--0----------0----------0----------0-----0---------------|
|-----------------------------------------------------------|
|-----------------------------------------------------------|


|--------------------------------------------0-2-3-5-7-5~3~2|
|----------------1----------------------(0)-----------------|
|----0--------0--------0-----0-----(0)----------------------|
|-2--------2--------2-----2---------------------------------|
|-------3--------------------------------------------------3|
|-------------------------------0---------------------------|


|------------------------0^2~7--3^0^2~3-----------0^3^0^3---|
|---------------------0-----(7)----------------1------------|
|----0--§-----0-----------------------------0---------------|
|-2--------2-----------------------------2------------------|
|----------------------------------------------3------------|
|-------------------0---------------------------------------|


|----0^3--------3~5~3-------------------------2^0-----------|
|-1-------------3~5----0------------------------------------|
|------------0-----------------------0-----2----------2-----|
|---------2------------------(2)--2-----0----------0--------|
|-------------------------3---------------------------------|
|---------------0-------------------------------------------|


|------------3^2---------------------------------------2----|
|-5^3-------------3----------------0^1-----1--------1-------|
|---------2----------2-----0^2--2-------2--------2----------|
|------0----------------0---------------------0-----------0-|
|-----------------------------------------------------------|
|-----------------------------------------------------------|


|----------------------3----------0-2-3-5-7~10-10-10~121212-|
|-------------------1---------------------------------------|
|----------------0-----------0------------------------------|
|(0)----2-----2-----------2---------------------------------|
|----3-----3------------------------------------------------|
|-------------------------------0-----------------------(8)-|


|----------------3~5~3--8~10-------(0)--10~8-------(0)------|
|----------------3~5----8~10--------------------------------|
|----0-----0------------------------------------------------|
|-2-----2---------------------------------------------------|
|-----------------------------(7)-------------(7)-----------|
|-------------0---------------------------------------------|


|-------------------0--3^0-----0--3^0--------------3--------|
|----------------0----------0-------------------------------|
|----0-----0------------------------------0-----2--------2--|
|-2-----2------------------------------2-----0--------0-----|
|-----------------------------------------------------------|
|-------------0---------------------------------------------|


|-3^2-----------------------3^2--------------0--------------|
|------3-------------------------3--------------------------|
|---------2-----2--------2----------2-----2------§----------|
|------------0-----0--0----------------0--------------------|
|-----------------------------------------------------------|
|-----------------------------------------------------------|


|-----------------------------------------------------------|
|--------------------------------(1)------------------------|
|--------------0-------------(0)------0---------0-----------|
|-----§--2--2------------(2)----------0^2--0^2--------------|
|-----------------3--(3)------------------------------------|
|-0------------------------------------------------0--------|
				     |Loud|


|-(0^3)-----(3)--0------------------------------------------|
|-------(1)--------(3)------------------------------(3)-----|
|-------------------------------------0-------0-------------|
|-----------------------2--------0^2-----0^2----------------|
|--------------------------2--3-----------------------------|
|------------------------------------------------0----------|
				|---Loud----|


|------------------0----------------2-----0-----------2-----|
|--------------------------------------------------------3--|
|----0----------0----------0-----2-----2-----2-----2-------2|
|-2--------0^2--------0^2-----0-----------------0-----------|
|-------3---------------------------------------------------|
|-----------------------------------------------------------|


|----0-------7----------7----------0--7^8--0--9^10--0--12---|
|----0--5^7-----7--5^7--------------------------------------|
|-0--0------------------------0-----------------------------|
|----2---------------------2--------------------------------|
|----2---------------------------3--------------------------|
|----0------------------------------------------------------|
|-Loud----|


|------------------0^3--5^3^5^3^5---------------------------|
|------------3--3-------------------------------------0^1--3|
|------0--------------------------------2---------0-2-------|
|-0^2------------------------------0^2--------0-2-----------|
|------------------------------------------3----------------|
|---------0-------------------------------------------------|
					      |-Loud--------|


|--------------------------------------------0--0-----------|
|-3--1--0--------3--(3-3-1)------------------------1-----1--|
|-------------0--------------------0------------------0-----|
|----------2--------------------2---------------------------|
|-------------------------------------3-§-3-----------------|
|-------0--------------------0------------------------------|
		    |Quick|

|---------------2-----------0-----------3^2-----------------|
|------------------3-----------3--------3----3-----3--------|
|------0-----2-----------2-----------2----------2-----2-----|
|-0^2-----0-----------0-----------0-------------------------|
|-----------------------------------------------------------|
|-----------------------------------------------------------|


|-------------2-----------------2---------------------------|
|----------------3-----3-----3------------------------------|
|----2-----2--------2-----2---------------------------------|
|-------4---------------------------------------------------|
|-----------------------------------------------------------|
|-2---------------------------------------------------------|


|---------0--------------3~5^7^10~121212~10~8888~7777-------|
|-----------------------------------------------------------|
|----0^2-----------0----------------------------------------|
|-2----------2--0-------------------------------------------|
|-2-------------------3-------------------------------------|
|-0----------------------------------------------0----------|


|--------------3-----------3--0--3--0-----3~5~3-------------|
|---------1^3-----3--1--3--------------1--3~5---------------|
|------0----------------------------------------------------|
|-0^2-------------------------------------------------------|
|---------3-------------------------------------------------|
|---------------------------------------------0-------------|



|----------------------------0--------------0^2~3~7---------|
|---------------------------------------§-------------------|
|----------------0--------0---------------------------------|
|----2--------2--------2------------------------------------|
|-2-----2-----------3---------------------------------------|
|----------0------------------------------------------------|


-- 
     
Добавлено: 07.07.2013
Другие материалы по этой песне:
  • Аккорды и текст

Страница создана 07.07.2013
http://primanota.ru/van-morrison/i-will-be-your-lover-too-chords.htm
Привет, Гость.
Предлагаем пройти революционный курс по гитаре.
Подарок от PrimaNota.Ru, забирай!