PrimaNota.ru - самый крупный в мире бесплатный архив песенных текстов, аккордов, табулатур и нот


Van Halen - Van Halen - таба, видео

Регистрация Запомнить меня
Войти через:  Facebook Google Twitter Vk Yandex Mail.ru

Van Halen - Van Halen - таба, видео

Печатать
Просмотров: 77
Van Halen I Album


1. Running With the Devil

Tuned down 1/2 step: Eb,Ab,Db,Gb,Bb,eb

Legend:
x-dead string
*-artificial harmonic
+-natural harmonic
PM. -light palm mute
PM_ -palm mute
~-vibrato
|o--o|
|o--o|-repeat
/-slide up
\-slide down
h-hammer on
p-pull off
B-full bend
b-half bend

Intro
Lots of distortion
(0:18)                                                 x3
||--x----------| ---------------------------------------- |
||---x---------|o----------5-7------xx---7h8---10---9----o|
||----x--------| ----------5-7------xx---7------9---9---- |
||-----x-------| ----------5-7------xx---7h9---11---9---- |
||------x------|o-------------------xx-------------------o|
||-------x-----| ---/17\\\----------xx------------------- |
          ^strum strings behind nut                   

(0:34)
|----------------------------------------|
|----------5-7-----xx---7h8---10---9\\---|
|----------5-7-----xx---7------9---9\\---|
|----------5-7-----xx---7h9---11---9\\---|
|------------------xx--------------------|
|---/17\\\---------xx--------------------|

1st verse
Lowered Distortion and volume
(0:40)
|---------------------------------|
|---------------------------------|
|--2-----------4------2------0----|
|--2-----------5------4------2----|
|--0-----0--0------0------0-------|
|-----3---------------------------|
PM    .  .  .      .      .
     "I live my life like there's no tomorrow"

(0:45)
|---------------------------------------12+-----7+----|
|-----------------------------------12+------7+-------|
|--2-----------4------2------0---------------------5+-|
|--2-----------5------4------2/5----------------------|
|--0-----0--0------0------0---------------------------|
|-----3-----------------------------------------------|
PM    .  .  .      .      .
   "and all I've got I had to steal               


(0:50)
|---------------------------------|
|---------------------------------|
|--2-----------4------2------0----|
|--2-----2-----5------4------2----|
|--0-----0--0------0------0-------|
|-----3---------------------------|
PM    .  .  .      .      .
"Least I don't need to beg or borrow"


(0:55)
|-------------------------------------0---|
|-------------------------------------0---|
|--2-----------4------2------0--------0---|
|--2-----2-----5------4------2----0---2\\-|
|--0-----0--0-------------------------2\\-|
|-----3-------------------------------0---|
PM    .  .  .         .   
"Yes I'm livin' at a pace that kills"


Chorus
(0:59)                           x4
| ------------------------------ |
|o-5-7---xx---7h8---10---9\\\---o|
| -5-7---xx---7------9---9\\\--- |
| -5-7---xx---7h9---11---9\\\--- |
|o-------xx---------------------o|
| -------xx--------------------- |
"Runnin' with the devil"


Verse 2
(1:20)
|---------------------------------|
|---------------------------------|
|--2-----------4------2------0----|
|--2-----2-----5------4------2----|
|--0-----0--0------0------0-------|
|-----3---------------------------|
PM    .  .  .      .      .
"I found the simple life ain't so simple"

(1:25)                     tr~~~~~~~~
|--------------------------------------|
|---------------------------7p0h7------|
|--2-----------4------2-----7p0h7-etc.-|
|--2-----2-----5------4----------------|
|--0-----0--0------0-----5/------------|
|-----3--------------------------------|
PM    .  .  .      .    
"When I jumped out on that road"

(1:29)
|---------------------------------|
|---------------------------------|
|--2-----------4------2------0----|
|--2-----2-----5------4------2----|
|--0-----0--0------0------0-------|
|-----3---------------------------|
PM    .  .  .      .      .
"I've got no love, no love you'd call real"

(1:35)
|-------------------------------------0---|
|-------------------------------------0---|
|--2-----------4------2------0--------0---|
|--2-----2-----5------4------2----0---2\\-|
|--0-----0--0-------------------------2\\-|
|-----3-------------------------------0---|
PM    .  .  .         .   
"Ain't got nobody waitin' at home"


Chorus
(1:40)                           X3
| ------------------------------ |
|o-5-7---xx---7h8---10---9\\\---o|
| -5-7---xx---7------9---9\\\--- |
| -5-7---xx---7h9---11---9\\\--- |
|o-------xx---------------------o|
| -------xx--------------------- |
"Runnin' with the devil"

(1:54)
|--------------------------------|
|-5-7---xx---7h8---10------------|
|-5-7---xx---7------9------------|
|-5-7---xx---7h9---11------------|
|-------xx-----------------------|
|-------xx--------------/17\\\\--|
"Runnin' with the devil"


Solo 1
(1:59)
|---------------------------------------------------------------------------------------|
|---------14-15-17-15-15p14-------14------------------12-13-15-(13)-13p12-------12------|
|------14-------------------14-------14-------------12--------------------12-------12---|
|-7/14-------------------------14-------14--14\5/12--------------------------12-------12|
|---------------------------------------------------------------------------------------|
|---------------------------------------------------------------------------------------|

                                    ______
Solo 1 cont.            while bent /      \
|------------------------------17B-17-17-17~~~~~-------------------14---15---15br15\\\\-|
|------------14-15-17-15-15p14-------------------12--12/13-15p13---15---16---15Br15\\\\-|
|---------14----------------------------------------------------------------------------|
|-12\7/14-------------------------------------------------------------------------------|
|---------------------------------------------------------------------------------------|
|---------------------------------------------------------------------------------------|


Chorus
(2:10)                                   x2
|----------------------------------------|
|----------5-7-----xx---7h8---10---9-----|
|----------5-7-----xx---7------9---9-----|
|----------5-7-----xx---7h9---11---9-----|
|------------------xx--------------------|
|---/17\\\---------xx--------------------|


Verse
(2:19)
|---------------------------------|
|---------------------------------|
|--2-----------4------2------0----|
|--2-----2-----5------4------2----|
|--0-----0--0------0------0-------|
|-----3---------------------------|
PM    .  .  .      .      .
"I found the simple life ain't so simple"


(2:25)
|-----------------------  Eddie does a harmonic bit here but I couldn't quite figure it
|-----------------------  out.  Sorry.
|--2-----------4------2-
|--2-----2-----5------4-
|--0-----0--0------0----
|-----3-----------------
PM    .  .  .      .
"when I jumped out on that road"


(2:29)
|---------------------------------|
|---------------------------------|
|--2-----------4------2------0----|
|--2-----2-----5------4------2----|
|--0-----0--0------0------0-------|
|-----3---------------------------|
PM    .  .  .      .      .
"I got no love, no love you'd call real"


(2:34)
|-------------------------------------0---|
|-------------------------------------0---|
|--2-----------4------2------0--------0---|
|--2-----2-----5------4------2----0---2\\-|
|--0-----0--0-------------------------2\\-|
|-----3-------------------------------0---|
PM    .  .  .         .   
"Ain't got nobody waitin' at home"


Chorus
(2:39)                                   x3
|----------------------------------------|
|----------5-7-----xx---7h8---10---9-----|
|----------5-7-----xx---7------9---9-----|
|----------5-7-----xx---7h9---11---9-----|
|------------------xx--------------------|
|---/17\\\---------xx--------------------|
"Runnin' with the devil"


Solo 2
(2:59)

|---------------------------------------------------------------------------------------|
|---------14-15-17-15-15p14-------14------------------12-13-15-(13)-13p12-------12------|
|------14-------------------14-------14-------------12--------------------12-------12---|
|-7/14-------------------------14-------14--14\5/12--------------------------12-------12|
|---------------------------------------------------------------------------------------|
|---------------------------------------------------------------------------------------|


Solo 2 cont
|-------------------------------17~~~~~~~~~------------------------14---15---15br15\\\\-|
|------------14-15-17-15-15p14-------------------12--12/13-15p13---15---16---15Br15\\\\-|
|---------14----------------------------------------------------------------------------|
|-12\7/14-------------------------------------------------------------------------------|
|---------------------------------------------------------------------------------------|
|---------------------------------------------------------------------------------------|

Outro
(3:09)                           x5
| ------------------------------ |
|o-5-7---xx---7h8---10---9\\\---o|
| -5-7---xx---7------9---9\\\--- |
| -5-7---xx---7h9---11---9\\\--- |
|o-------xx---------------------o|
| -------xx--------------------- |




2. Eruption


legend:
~ = vrabrato
p = pull off
b = bend
r = release note from bend
h = hammer on
+ = tap
w = whammy bar
/ = slide
/X = pick slide
pm = palm mute
(ps) = pick squeel or pinch harmonic
DB = dive bomb
/-\ = slide up and back down the neck quickly on that string

ok lets get started first you have to tune your guitar down half a step so the tuning is

Eb Ab Db Gb Bb Eb

            <--------PM-------->
E----------------------------------------------------------------------------|
B-------------------------------5-8p5p0-8p5p0-8p5p0-8p5p0-8p5p0-8p5p0-8p5p0--|
G-----2----------5-7b(ps)r-p5-7----------------------------------------------|
D--/X-2------5-7-------------------------------------------------------------|
A--/X-0--3/7-----------------------------------------------------------------|
E----------------------------------------------------------------------------|

E---------------------------------------------------------------------------|
B----5-8p5---5--------------------------------------------------------------|
G--7-------7---7-5--4h5h7p5p4---4h5h7p5p4---4h5h7p5p4---4h5h7p5p4-----------|
D-----------------------------7-----------7-----------7-----------7---------|
A---------------------------------------------------------------------------|
E---------------------------------------------------------------------------|

E------------------------------------------------------0--0-----------------|
B---------------------------------------------------2--3--3-----------------|
G--4------------------------------------------------2--0--2-----------------|
D----7-6-5-4----------------------------------------2--0--0-----------------|
A------------7-6-5-3~--/-\------0w-0w-0w-0w-0w-0w---0--0--------------------|
E----------------------------0w------------------------3--------------------|

E-------17-----17-17----17-17-----17-17---------17-20-21----20p17-----------|
G--/20-----20b------20b-------20b-------20b--20----------19-----------------|
B---------------------------------------------------------------------------|
D---------------------------------------------------------------------------|
A---------------------------------------------------------------------------|
E---------------------------------------------------------------------------|

E------17-----17--20brp17----------------------------------------------------------------------------|
B--19b----20b-------------20-17-20brp17----20brp17----20brp17----20brp17----20brp17----20brp17----17-|
G---------------------------------------19---------19---------19---------19---------19---------19----|
D----------------------------------------------------------------------------------------------------|
A----------------------------------------------------------------------------------------------------|
E----------------------------------------------------------------------------------------------------|


E-----------------16h17h20--17h20p17h20p17----------------------------------------|
G--------16h18h20--------------------------17h20p17h20p17----------------17-------|
B--12/18---------------------------------------------------19-17-19b-19b----19DB--|
D---------------------------------------------------------------------------------|
A---------------------------------------------------------------------------------|
E---------------------------------------------------------------------------------|
 
This is the part where he starts tremolo picking (very fast)

E--12-12-12-12-12-12-12-16-16-16-16-16-16-19-19-19-19-19-19-17-17-17-17-14-14-14-14--|
B------------------------------------------------------------------------------------|
G------------------------------------------------------------------------------------|
D------------------------------------------------------------------------------------|
A------------------------------------------------------------------------------------|
E------------------------------------------------------------------------------------|


E--17-17-17-17-14-14-14-14-16-16-16-16-12-12-12-12-12-12-16-16-16-16-16-16-19-19-19--|
B------------------------------------------------------------------------------------|
G------------------------------------------------------------------------------------|
D------------------------------------------------------------------------------------|
A------------------------------------------------------------------------------------|
E------------------------------------------------------------------------------------|


E--19-19-19-17-17-17-17-14-14-14-14-17-17-17-17-14-14-14-14-16-16-16-16-12-12-12-12--|
B------------------------------------------------------------------------------------|
G------------------------------------------------------------------------------------|
D------------------------------------------------------------------------------------|
A------------------------------------------------------------------------------------|
E------------------------------------------------------------------------------------|

E--12-12-14-14-10-10-12-12-9-9-10-10/7-7-9-9/5-5-7-7/3-3-5-5/1-1-3-3-1-1-1-1-1-1-----|
B------------------------------------------------------------------------------------|
G------------------------------------------------------------------------------------|
D------------------------------------------------------------------------------------|
A------------------------------------------------------------------------------------|
E------------------------------------------------------------------------------------|

E--1h3p1p0---------------------------------------------------------------------------|
B-----------5p3p0--------------------------------------------------------------------|
G------------------5p2p0-------------------------------------------------------------|
D------------------------------------------------------------------------------------|
A------------------------------------------------------------------------------------|
E-------------------------0wwwwww----------------------------------------------------|
                        right here push your whammy bar down to make the note almost
disappear and release it back up slowly

Ok these next 3 bars of my tab are wrong. I never actually figured out the real thing
cuz eddie is a shredder and his hands move way to fast for me to see what he is doing.
anyway i made this part up and it still sounds sweet when played to speed.
                 
E------------------------------------------------------------------------------------|
B----------------------------------------7h9p7h9p7h9p7h9p7h9p7h9p7h9p7h9p7h9p7~~~~~~-|
G--------------------5p0-------------5p0---------------------------------------------|
D------5h7-7-7-7-7-7-----7-7-7-7-7-7-------------------------------------------------|
A--/7--------------------------------------------------------------------------------|
E------------------------------------------------------------------------------------|

E------------------------------------------------------------------------------------|
B----------------------------------------8h10p8h10p8h10p8h10p8h10p8h10p8h10p8h10p8~~-|
G------------------------------------------------------------------------------------|
D--------------------5p0-------------5p0---------------------------------------------|
A------5h7-7-7-7-7-7-----7-7-7-7-7-7-------------------------------------------------|
E--3/7-------------------------------------------------------------------------------|


E------------------------------------------------------------------------------------|
B----------------------------------------9h11p9h11p9/7h9p7h9p7/5h7p5h7p5/4h6p4h6p4---|
G--------------------5p0-------------5p0---------------------------------------------|
D------5h7-7-7-7-7-7-----7-7-7-7-7-7-------------------------------------------------|
A--3/7-------------------------------------------------------------------------------|
E------------------------------------------------------------------------------------|

here is the tapping part

   +	 +     +     +     +     +     +     +     +      +      +      +
E--------------------------------------------------------------------------------------|
B--9p2h5-9p2h5-9p2h5-9p2h5-9p2h5-9p2h5-9p2h5-9p2h5-10p2h5-10p2h5-10p2h5-10p2h5---------|
G--------------------------------------------------------------------------------------|
D--------------------------------------------------------------------------------------|
A--------------------------------------------------------------------------------------|
E--------------------------------------------------------------------------------------|
   +      +      +      +      +      +      +      +      +      +      +        
E--------------------------------------------------------------------------------------|
B--10p2h5-10p2h5-10p2h5-10p2h5-10p4h7-10p4h7-10p4h7-10p4h7-10p4h7-10p4h7-10p4h7-10p4h7-|
G--------------------------------------------------------------------------------------|
D--------------------------------------------------------------------------------------|
A--------------------------------------------------------------------------------------|
E--------------------------------------------------------------------------------------|
   +      +      +      +      +      +      +      +      +      +      +
E--------------------------------------------------------------------------------------|
B--12p4h7-12p4h7-12p5h9-12p5h9-12p5h9-12p5h9-12p5h9-12p5h9-12p5h9-12p5h9-12p5h9--------|
G--------------------------------------------------------------------------------------|
D--------------------------------------------------------------------------------------|
A--------------------------------------------------------------------------------------|
E--------------------------------------------------------------------------------------|
   +      +      +      +      +      +      +      +      +      +      +
E--------------------------------------------------------------------------------------|
B--13p5h8-13p5h8-13p5h8-13p5h8-13p5h8-13p5h8-13p5h8-13p5h8-15p5h8-15p5h8-15p7h10-------|
G--------------------------------------------------------------------------------------|
D--------------------------------------------------------------------------------------|
A--------------------------------------------------------------------------------------|
E--------------------------------------------------------------------------------------|
   +       +       +       +       +       +       +       +       +       
E--------------------------------------------------------------------------------------|
B--15p7h10-15p7h10-15p7h10-15p7h10-15p7h10-15p7h10-15p7h10-17p7h10-17p7h10-------------|
G--------------------------------------------------------------------------------------|
D--------------------------------------------------------------------------------------|
A--------------------------------------------------------------------------------------|
E--------------------------------------------------------------------------------------|
   +       +       +       +       +       +       +       +       +        +
E--------------------------------------------------------------------------------------|
B--17p9h12-17p9h12-17p9h12-17p9h12-17p9h12-17p9h12-17p9h12-17p9h12-17p12h15-17p12h15---|
G--------------------------------------------------------------------------------------|
D--------------------------------------------------------------------------------------|
A--------------------------------------------------------------------------------------|
E--------------------------------------------------------------------------------------|
   +        +        +       +       +        +        +        +        +
E----------------------------------------------------------------------------------------|
B--17p11h14-17p10h13-17p9h12-17p9h12-17p12h15-17p12h15-17p11h14-17p10h13-17p9h12-17p9h12-|
G----------------------------------------------------------------------------------------|
D----------------------------------------------------------------------------------------|
A----------------------------------------------------------------------------------------|
E----------------------------------------------------------------------------------------|
   +        +        +       +       +       +       +       +      +       +
E--------------------------------------------------------------------------------------|
B--15p10h13-15p10h13-15p9h12-15p9h12-15p8h11-15p8h11-15p7h10-15p710-13p8h11-13p8h11----|
G--------------------------------------------------------------------------------------|
D--------------------------------------------------------------------------------------|
A--------------------------------------------------------------------------------------|
E--------------------------------------------------------------------------------------|
   +       +       +      +      +      +      +      +      +      +      +
E--------------------------------------------------------------------------------------|
B--13p7h10-13p7h10-13p6h9-13p6h9-13p5h8-13p5h8-12p4h7-12p4h7-12p4h7-12p4h7-12p4h7------|
G--------------------------------------------------------------------------------------|
D--------------------------------------------------------------------------------------|
A--------------------------------------------------------------------------------------|
E--------------------------------------------------------------------------------------|
   +      +      +      +      +      +      +      +      +      +      +
E--------------------------------------------------------------------------------------|
B--12p4h7-12p4h7-12p4h7-12p5h8-12p5h8-12p5h8-12p5h8-12p5h8-12p5h8-12p5h8-12p5h8--------|
G--------------------------------------------------------------------------------------|
D--------------------------------------------------------------------------------------|
A--------------------------------------------------------------------------------------|
E--------------------------------------------------------------------------------------|
   +      +      +      +      +      +      +      +      +      +      +
E--------------------------------------------------------------------------------------|
B--12p4h7-12p4h7-12p4h7-12p4h7-12p4h7-12p4h7-12p4h7-12p4h7-12p5h8-12p4h7-12p5h8-12p4h7-|
G--------------------------------------------------------------------------------------|
D--------------------------------------------------------------------------------------|
A--------------------------------------------------------------------------------------|
E--------------------------------------------------------------------------------------|
    +      +      +      +      +      +      +      +      +
E-----------------------------------------------------------------------|
B---12p5h8-12p4h7-12p5h8-12p4h7-12p5h8-12p4h7-12p5h8-12p4h7-12p5--------|
G-----------------------------------------------------------------------|
D-----------------------------------------------------------------------|
A-----------------------------------------------------------------------|
E---------------------------------------------------------------/-\--0--|
                                                               at this open "e" if
you dont have a floyd rose bridge to raise the note just push down on the string past
the nut to get the raised note affect 



3. You Really Got Me

Gtr I (Eb Ab Db Gb Bb Eb) - 'Eddie Van Halen - distortion (brown sound) '

x\ indicates pick scrape throughout

Intro
  Q=140
 4/4
  Gtr I
  H    Q.   E   E E E E Q  S S E   E E E E Q  S S E
|-------------|------------------|------------------|
|-------------|------------------|------------------|
|-------------|-2-2---2----x-x---|-2-2---2----x-x---|
|-------------|-2-2---2----x-x---|-2-2---2----x-x---|
|-------------|-0-0---0----x-x---|-0-0---0----x-x---|
|-----------3-|-----3----------3-|-----3----------3-|


  E E E E Q  S S E   E E E  E  +Q.   E   E E E E E E E E
|------------------|-------------------|---------x-x-x---|
|------------------|-------(2)---------|---------x-x-x---|
|-2-2---2----x-x---|-2-2----2--(2)-----|-2-2---2-x-x-x---|
|-2-2---2----x-x---|-2-2----2--(2)-----|-2-2---2-x-x-x---|
|-0-0---0----x-x---|-0-0----0--(0)-----|-0-0---0-x-x-x---|
|-----3----------3-|-----3-----------3-|-----3---x-x-x-3-|


  E E E E E E E E   E E E E E E E E   E E E   E +E  a  E  +Q
|---------x-x-x---|---------x-x-x---|---------------------------|
|---------x-x-x---|---------x-x-x---|---------------------------|
|-2-2---2-x-x-x---|-2-2---2-x-x-x---|-2-2-----------------------|
|-2-2---2-x-x-x---|-2-2---2-x-x-x---|-2-2-----------------------|
|-0-0---0-x-x-x---|-0-0---0-x-x-x---|-0-0-----------------------|
|-----3---x-x-x-3-|-----3---x-x-x-3-|-----3b5-3-(3)-3s15-(15)\--|


 Verse 1
  PM----------------------------------------|
  E E E E Q.   E   E E E E Q  S S E   E E E E E a E    +Q
|----------------|------------------|----------------------|
|----------------|------------------|----------------------|
|----------------|------------------|-------------4pb5r(4)-|
|-2-2---2--------|-2-2---2----x-x---|-2-2---2---x----------|
|-0-0---0--------|-0-0---0----x-x---|-0-0---0--------------|
|-----3--------3-|-----3----------3-|-----3----------------|


                                      PM----------------------------|
   e   e   e   e   e   e   e     e    e E E E Q.   E   E E E E Q  E E
|-----------------------------------|----------------|----------------|
|-----------------------------------|----------------|----------------|
|-[4]-[2]---------------------------|----------------|----------------|
|---------[4]-[3]-[2]---------------|---2---2--------|-2-2---2----x---|
|---------------------[4]-[2]b4-[2]-|-0-0---0--------|-0-0---0----x---|
|-----------------------------------|-----3--------3-|-----3--------3-|


  PM----|                                                         PM-|
  E E E E E  Q.          e   e   e   e   e   e  e e   E E E E Q   E  E
|---------------------|-----------------------------|------------------|
|---------------------|-----------------------------|------------------|
|-----------[7]b7.5---|-[5]-[7]---------------------|------------------|
|-2-2---2-------------|---------[7]-[5]-------------|-4-4---4--------2-|
|-0-0---0-------------|-----------------[7]-[5]-3h5-|-2-2p0-2----(0)-0-|
|-----3---------------|-----------------------------|------------------|
                          random harmonics

  PM--------------------------------------------------|
  E E E E Q.   E   E E E E Q   E  E   E E E E +Q    E E
|----------------|------------------|-------------------|
|----------------|------------------|-------------------|
|----------------|------------(0)---|-------------------|
|-4-4-2-4------2-|-4-4-2-4--------2-|-4-4---4-(4)/--7s8-|
|-2-2-0-2------0-|-2-2-0-2--------0-|-2-2-0-2-(2)/--5s6-|
|----------------|------------------|-------------------|


                 PM--------|          PM--------|
  E E E E +E   E E E   E E E E +E   E E E   E E E E +E   E E E
|--------------------|--------------------|--------------------|
|--------------------|--------------------|--------------------|
|-9-9-7-9-(9)\-------|-------9-(9)\-------|-------9-(9)\-----7-|
|-9-9-7-9-(9)\-----7-|-9-9-7-9-(9)\-----7-|-9-9-7-9-(9)\-----7-|
|-7-7-5-7-(7)\---x-5-|-7-7-5-7-(7)\---x-5-|-7-7-5-7-(7)\---x-5-|
|--------------------|--------------------|--------------------|


 Chorus
  E E E E E E     E E    E E E E     +Q   Q    E E E E +Q    S S E
|----------------------|---------------------|---------------------|
|----------------------|---------------------|-----7-9-(9)\--------|
|----------------------|-------9b12==(9)r=9--|-9-9-7-9-(9)\--------|
|-9-9-7-9---------2----|-9-9-7---------------|-9-9-7-9-(9)\--------|
|-7-7-5-7-----------5/-|-7-7-5---------------|-7-7-5-7-(7)\--------|
|---------0-3b3.5------|---------------------|---------------x-x-0-|


                               PM----------------------------|
  W          Q   Q   Q   Q     E E E E Q.   E   E E E E Q.   E
|----------|-----------------|----------------|-----------------|
|----------|-----------------|----------------|-----------------|
|-7--------|-x\--x\----------|----------------|-----------------|
|-7--------|-x\--x\--x-------|----------------|-2-2---2---------|
|-5--------|---------x-------|-0-0---0--------|-0-0---0---------|
|----------|------------15\--|-----3--------3-|-----3--------3--|


  PM----|                                           PM----|      PM
                             |-3-| |-3-|
  E E E E E Q      +E    +E  S S S E E E Q.    E    E E E E Q.   E
|----------------------|--------------------------|----------------|
|-----------8b11===(8)r|=(8)----------------------|----------------|
|----------------------|-----7h9p7-6--------------|----------------|
|-2-2---2--------------|-------------7------------|----------------|
|-0-0---0--------------|---------------7-5b7---7\-|-0-0---0--------|
|-----3----------------|--------------------------|-----3--------3-|


  PM----|                              T
                             |-3-| |-3-|
  E E E E Q.   E   E E E E E S S S E E E
|----------------|-----------------------|
|----------------|-----------5h8p5h8p5-8s|
|----------------|-----------------------|
|----------------|-2-2-------------------|
|-0-0---0--------|-0-0---0---------------|
|-----3--------3-|-----3-----------------|


               T            T
   |-3-| |--3--|
   S S S S +S  S S +S  S S  E  E  Q
|--------------------------------------|
|-12p8p5h8-(8)p5-8-(8)p5h8-12s17-------|
|--------------------------------------|
|--------------------------------------|
|--------------------------------------|
|--------------------------------12\---|


                  PM--------|      PM--------|          PM
  E E E E +Q    E E   E E E E Q.   E   E E E E +E   E E E
|-------------------|----------------|--------------------|
|-------------------|----------------|--------------------|
|-------------------|----------------|--------------------|
|-4-4---4-(4)\----2-|-4-4-2-4------2-|-4-4-2-4-(4)\-----2-|
|-2-2-0-2-(2)\----0-|-2-2-0-2------0-|-2-2-0-2-(2)\---0-0-|
|-------------------|----------------|--------------------|


  PM|                               PM--------|         PM|
  E E E E +Q    E E   E E E E +Q    E E   E E E E +Q    E E
|-------------------|-------------------|-------------------|
|-------------------|-------------------|-------------------|
|-4-4-2-4-(4)/----7-|-9-9-7-9-(9)\------|-------9-(9)\------|
|-4-4-2-4-(4)/----7-|-9-9-7-9-(9)\------|-9-9-7-9-(9)\----7-|
|-2-2-0-2-(2)/----5-|-7-7-5-7-(7)\--x-5-|-7-7-5-7-(7)\--x-5-|
|-------------------|-------------------|-------------------|


                     Chorus
                PM--------|         PM--------|
  E E E E +Q    E E   E E E E +Q    E E   E E E E +E   E  Q
|-------------------|-------------------|--------------------|
|-------------------|-------------------|--------------------|
|-9-9-7-9-(9)\------|-9-9-7-9-(9)\------|-9-9-x-9-(9)--------|
|-9-9-7-9-(9)\----7-|-9-9-7-9-(9)\--x-7-|-9-9-x-9-(9)-<7>----|
|-7-7-5-7-(7)\--x-5-|-7-7-5-7-(7)\--x-5-|-7-7-x-7-(7)-----0--|
|-------------------|-------------------|--------------------|

                                          Guitar Solo (with phaser)
  E E E E +Q   Q    W          +E  E  Q   Q  E    S S
|-----------------|----------|------------------------|
|-----------------|----------|------------------------|
|-9-9-7-9-(9)-----|-7--------|-(7)-----------7b9==7-7-|
|-9-9-7-9-(9)-----|-7--------|-(7)-x\-x\--x-----------|
|-7-7-5-7-(7)-----|-5--------|-(5)-x\-x\--x-----------|
|--------------7--|----------|------------------------|


                                                             T       T
                                                             |-----6-----|
  S S S S E   S S E S S   S S E   E.  S S    +E  +S  S E.    S  S S  S S S
|-5-5-5-5-----5-5-5-5-----5-5-5-|-----5--------------------(10)------------|
|-5-5-5-5-----5-5-5-5-----5-5-5-|-------------------------------5h8-10p5h8-|
|---------7b9---------7b9-------|-7b9---7b9==(7)r(7)p5-7b9-----------------|
|-------------------------------|------------------------------------------|
|-------------------------------|------------------------------------------|
|-------------------------------|------------------------------------------|


   T      T      T      T      T      T
   |----6-----|  |----6-----|  |----6-----|
   S S S  S S S  S S S  S S S  S S S  S S S S E.
|--------------------------------------------------|
|-10p5h8-10p5h8-10p4h7-10p4h7-10p3h6-10p3h6-2------|
|---------------------------------------------4b6==|
|--------------------------------------------------|
|--------------------------------------------------|
|--------------------------------------------------|


       T
  +E   E  +E   S +S  Q  E.  S
|--------------------------17-|
|-----------------------------|
|-(4)-12-(12)rp4-(4)p2s12-----|
|-----------------------------|
|-----------------------------|
|-----------------------------|


                                                             ~~~~~
                                                                     |--3--|
   Q      E  Q      E  Q        S  S  S  S  S  S     +S   S  Q       E  E  E
|--------17--------17--------|-17--------------------------------------------|
|-20b24-----20b24-----20b24--|----20p17----17-----------------------------17-|
|----------------------------|----------19----19b21r(19)p17-19b21------14----|
|----------------------------|-------------------------------------/16-------|
|----------------------------|-----------------------------------------------|
|----------------------------|-----------------------------------------------|


   +E   E  E      E  E      E       E   S  S
|--------------------------------------------|
|-(17)-17-17pb20-17-17pb20-17b22==(22)p17p14-|
|--------------------------------------------|
|--------------------------------------------|
|--------------------------------------------|
|--------------------------------------------|


                          ~~~~~~~~
   S  E      +S   S   E   S  +Q   Q
|------------------------------------|
|------------------------------------|
|-17-17pb19r(17)-14-(17)-14-(14)s=5--|
|-------------------------x----------|
|------------------------------------|
|------------------------------------|

                                    * turn neck pickup volume off turn vol 
                                     on/off by rapidly switching pickup switch
                                     from neck to bridge
    Q       +Q     H        H      +S  S   S  S   S  S   S  S
|------------------------|------------------------------------|
|------------------------|------------------------------------|
|-/10b12===(10)--(10)----|-12-----(12)---(12)---(12)---(12)---|
|-----------------(9)----|-(9)-----(9)----(9)----(9)----(9)---|
|------------------------|------------------------------------|
|------------------------|------------------------------------|


                                |-------6--------|
    S  S   S  S   S  S   S  S   S  S   S  S   S  S   T  T   T  T   T  T   T  T
|------------------------------------------------------------------------------|
|------------------------------------------------------------------------------|
|-(12)---(12)---(12)---(12)---(12)---(12)---(12)---(12)---(12)---(12)---(12)---|
|--(9)----(9)----(9)----(9)----(9)----(9)----(9)----(9)----(9)----(9)----(9)---|
|------------------------------------------------------------------------------|
|------------------------------------------------------------------------------|


    |-------6--------|
    S  S   S  S   S  S Q   E  E +Q
|--------------------------------------|
|--------------------------------------|
|-(12)---(12)---(12)-------------------|
|--(9)----(9)----(9)---x\--x\----------|
|----------------------x\--x\-9-(9)\---|
|--------------------------------------|

  phaser off
  Wx7          Q.   E E E E E
|------------|----------------|
|------------|----------------|
|------------|------5---------|
|------------|----------5---7-|
|------------|----------------|
|------------|----------------|


  +E   E H.        W          H.      E E   Q  Q   Q  Q
|----------------|----------|-------------|----------------|
|----------------|----------|-------------|----------------|
|----------------|----------|-------------|----------------|
|-(7)\-----------|----------|-------------|----------------|
|----------------|----------|-----------xs|=xs=x-----------|
|----------------|----------|-------------|-------17s=5\---|


  E E E E Q  E E   E E E E +Q   E E   E E E E +Q    E E
|----------------|------------------|-------------------|
|----------------|------------------|-------------------|
|----------------|------------------|-------------------|
|-4-4-2-4--------|-4-4-2-4-(4)----2-|-4-4-2-4-(4)\----2-|
|-2-2-0-2----x-0-|-2-2-0-2-(2)----0-|-2-2-0-2-(2)\----0-|
|----------------|------------------|-----------------0-|


  E E E E +Q    Q    E E E E +Q    E E   E E E E +Q    E E
|------------------|-------------------|-------------------|
|------------------|-------------------|-------------------|
|---------------7--|-9-9-7-9-(9)\----7-|-------9-(9)\------|
|-4-4-2-4-(4)/--7--|-9-9-7-9-(9)\----7-|-9-9-7-9-(9)\----7-|
|-2-2-0-2-(2)/--5--|-7-7-5-7-(7)\----5-|-7-7-5-7-(7)\--x-5-|
|------------------|-------------------|-------------------|


                                                 ~~~~~~~~
  E E E E +Q    E E   E E E E E E     E E   Q  E E   +Q   +Q
|-------------------|---------------------|---------------------|
|-------------------|---------------------|---------------------|
|-9-9-7-9-(9)\----7-|-9-9-7-9-------------|-9-------------------|
|-9-9-7-9-(9)\--x-7-|-9-9-7-9-----------x-|-9--7----------------|
|-7-7-5-7-(7)\--x-5-|-7-7-5-7---------2-x-|-7--5-7b9-(7)--(7)\--|
|-------------------|---------0-3b3.5-----|---------------------|


  E E E E     +Q.   E   E E E E E E. E.    Q   E   E  Q      S  S  S  S
|---------------------|-----------------|---------12--------12----------|
|---------------------|-----------------|------------15b17-----12h15p12-|
|-9-9-7-9b12==(9)-----|-9---9---9----x--|-12----------------------------|
|-9-9-7---------------|-9---9---9----x--|-12--12/-----------------------|
|-7-7-5---------------|-7---7---7----x--|-------------------------------|
|-------------------0-|-----------------|-------------------------------|


   |------6-------|  |------6-------|     |------6-------|  |------6-------|
   S  S  S  S  S  S  S  S  S  S  S  S  a  S  S  S  S  S  S  S  S  S  S  S  S
|----------12----------------------------------------------------------------|
|----12h15----12h15p12-------------------------------------------------------|
|-14-------------------15-14p12----14----11h12p11----11----------------------|
|-------------------------------14----14----------14----12-14-11h12p11----11-|
|----------------------------------------------------------------------14----|
|----------------------------------------------------------------------------|


   E  E E E H      H.        Q
|----------------|--------------*|
|----------------|--------------*|
|----------------|--------------*|
|----------------|--------------*|
|-12s11s9s7s5s===|=2b5==========*|
|----------------|-----------0--*|


4. Ain't Talkin' 'Bout Love

/  = slide 
^  = hammer/pull
w  = quickly hit the whammy bar
b  = bend
X  = noise 
~  = vibrato
< >= natural harmonic
 
Intro:
 
E ----------0-1-----3----------------
B ------1-------1(1)--3--------------  Repeat 4 times.  On the second time 
G --------2-------2------------------  through, play note in parentheses ()
D ----2------------------------------
A --0---------------------3~----2-3--
E ----------------------3------------
   |<--- palm muted ---->|
 
 
 
  (with ~310ms slap-back delay)
E -------------------------------------------------------w---w---w---
B --1-----1-----0-------------------1-----1-----0-----1-1/3-3/5-5^8--
G --2-----2-----0-------------------2-----2-----0--------------------
D --2-----2-----0-------------------2-----2-----0--------------------
A --0-----0---------------3~----2-3-0-----0--------------------------
E ----------------------0--------------------------------------------
 
E ----------------------------------0------------------------------
B --1-----1-----0-------------------1-----1-----0------------w-w---
G --2-2-2-2-----0-------------------2-----2-----0-----8(b)9--9-9\--
D --2-2-2-2-----0-------------------2-----2-----0------------------
A --0-0-0-0---------------3~----2-3-0-----0------------------------
E ------------0---------0------------------------------------------
 
Verse:
 
E ----------1---3--------------------
B ------1-------3--------------------
G --------2-----0--------------------
D ----2------------------------------
A --0---------------------3~----2-3--
E ----------------------3------------
 
 
I heard the news baby, all about your disease.
                       Yeah you may have all you 
want, baby.  But I got something you need.
 
(pick slide)
Oh yeah !
 
 
Chorus:
 
E -------------------------------------------------------------------
B --1-----1-----0-------------------1-----1-----0--------------------
G --2-----2-----0-------------------2-----2-----0--------------------
D --2-----2-----0-------------------2-----2-----0--------------------
A --0-----0---------------3~----2-3-0-----0---------------3~----2-3--
E ------------0---------0-------------------------------0------------
 
Ain't talkin' 'bout love.  My love is rotten to the core.
Ain't talkin' 'bout love.  Just like I told you before.
 
 
Verse 2:
 
You know you're semi-good lookin'.  And on the streets again.
You think you're really cooki'n baby.  You better find yourself a friend
 
(pick slide)
my friend.
 
(chorus, incl. following lick)
 
        E ----------w-w----w-w---
        B --7(b)8---8-8-(b)9-10--
        G -----------------------
        D -----------------------
        A -----------------------
        E -----------------------
 
Solo: 
 
       let open E ring 
                                        
E -------0----0----------------------0---------------------------0--
B ------10---10--10-12~-------------10---12-12-12-13-13-13-12\-8----
G -9-12------------------------9-12---------------------------------
D ------------------------------------------------------------------
A ------------------------------------------------------------------
E ------------------------------------------------------------------
                                        |<-- very fast -->|
 
E -------0----0--------0--------------------------------------------
B ------10---12--13---15---13--15/17--17/20---17^20^17--17^20^17----
G -9-12---------------------------------------------------------20--
D ------------------------------------------------------------------
A ------------------------------------------------------------------
E ------------------------------------------------------------------
 
 
E ----------------------------------------------------
B --17^20^17--17^20^17--17----------------------------
G ----------20--------20--19(b)21-19--0(whammy dive)--
D ----------------------------------------------------
A ----------------------------------------------------
E ----------------------------------------------------
 
(chorus)
 
Bridge:
 
  (clean sound)
E -----------1---3---------------------
B ------1------1---3-------------------
G --------2----------0-----------------
D ----2--------------------------------
A --0------------------------3~----2-3-
E -------------------------3-----------
 
  I've been to the edge.  There I stood and looked 
  down.  You know I lost a lot of 
  friends there baby.  I got no time to mess 
  around.  So if you want it, got to 
 
E ---------------------------------------------------------------------
B --X--X-------<5>------<12>--------X--X---<5>---------<7>-----<12>----
G --X--X-----<5>----<7>-------------X--X-----<5>--------------------0--
D --X--X---<5>----------------------X--X-------<5>--<7>----------------
A --X--X----------------------------X--X-------------------------------
E --X--X----------------------------X--X-------------------------------
 
  bleed for it baby. gotta gotta bleed baby.          mmm you gotta gotta
 
E --------------------------------------------------
B --X--X-------<5>--<5>-------------X--X-------<5>--
G --X--X-----<5>--------<5>---------X--X-----<5>----
D --X--X---<5>----------------------X--X---<5>------
A --X--X----------------------------X--X------------
E --X--X----------------------------X--X------------
 
  bleed baby  hey  gotta gotta  bleed baby 
 
E -------------------------------------------------------w---w---w---
B --1-----1-----0-------------------1-----1-----0-----1-1/3-3/5-5^8--
G --2-----2-----0-------------------2-----2-----0--------------------
D --2-----2-----0-------------------2-----2-----0--------------------
A --0-----0---------------3~----2-3-0-----0--------------------------
E ----------------------0--------------------------------------------
                                                         
Ain't talkin' 'bout love.   My love is rotten to the core.
 
E ----------------------------------0--------------------------------
B --1-----1-----0-------------------1-----------0--------------------
G --2-2-2-2-----0-------------------2-----2-----0--------------------
D --2-2-2-2-----0-------------------2-0-2-------0--------------------
A --0-0-0-0---------------3~----2-3-0---------------------3~----2-3--
E ------------0---------0-------------------0-0--------0-------------
 
Ain't talkin' 'bout love.  Just like I told you before, before, before  
 
Ain't talkin' 'bout love, don't wanna talk about love.
 
 
E --17-17-17-17-17-17-17\-
B ------------------------
G ------------------------
D ------------------------
A ------------------------
E ------------------------
 
Don't make me talk about love.
 
Ain't gonna talk about love.
 
 
(solo)
 
E -------------------------------------------------------------------
B --1-----1-----0-------------------1-----1-----0--------------------
G --2-----2-----0-------------------2-----2-----0--------------------
D --2-----2-----0-------------------2-----2-----0--------------------
A --0-----0---------------3~----2-3-0-----0---------------3~----2-3--
E ------------0---------0-------------------------------0------------
 
                   Hey ! Hey ! Hey !               Hey ! Hey ! Hey !            
                  
E -------------------------------------------------------------------
B --1-----1-----0----w---w----w-----1-----1-----0--------------------
G --2-----2-----0----5--/8--/10\----2-----2-----0--------------------
D --2-----2-----0-------------------2-----2-----0--------------------
A --0-----0-------------------------0-----0---------------3~----2-3--
E ------------0-----------------------------------------0------------
 
                   Hey ! Hey ! Hey !               Hey ! Hey ! Hey !            
                  
E --------------------------------
B --1-----1-----0-----------------
G --2-----2-----0------5---5---5--  (4 times)
D --2-----2-----0------5---5---5--
A --0-----0------------3---3---3--
E ------------0-------------------
                     Hey ! Hey ! Hey!
E -------------------------------------------0----------------------------------
B ----------5----------------1---------------1------------------------1-------8-
G --2---4---5----------------2---4-----------2---4---5----------------2---4---7-
D --2---4---5----------------2---4/----------2---4---5----------------2---4---9-
A --0---2---3-----------3-2--0---2-----------0---2---3-----------3-2--0---2---7-
E ------------/12\--0^3-------------0(dive)------------/12\--0^3----------------
 
E ----------7\-
B ----------7\-
G ----------7\-
D ----------6\-
A ----------7\-
E --0(dive)----


5. Im The One

Gtr I (Eb Ab Db Gb Bb Eb) - 'Eddie Van Halen - Lead & Rhythm w/dist'

Intro
    Q=236(8=s8)
   4/4
    Gtr I
    E e e E E e e E   E E E E E Q.
||------------------|----------------|
||o-----------------|----------------|
||------------------|-----------5----|
||--------7-------5-|-------7---5----|
||o-0-0-0---0-0-0---|-0-0-0---0------|
||------------------|----------------|


                                      ~~~~
  E e e E E e e E   E e E E E E      +Q
|-----------------|------------------------|
|-----------------|------------------------|
|-----------------|------------------------|
|-------7-------5-|-------7----------------|
|-0-0-0---0-0-0---|-0-0-0---0-3b3.5==(3)r--|
|-----------------|------------------------|


                   1.
                                |-3-|
  E e e E E e e E   E e e E E E E E E
|-----------------|-------------------|
|-----------------|-------------------|
|-----------------|-------------5p0---|
|-------7-------5-|-------7---5-----7-|
|-0-0-0---0-0-0---|-0-0-0---0---------|
|-----------------|-------------------|


          PM|
  |-3-| |-3-| |-3-| |-3-|   |-3-| |-3-|
  E E E E E E E E E E E E   E E E E E E E E Q
|-------------------------|-----------------------||
|-5p0---------5p0---------|----------------------o||
|-----7p5-0-------7p5p0---|-5p0-------------------||
|-----------7-----------7-|-----7-5p0---7-5p0-----||
|-------------------------|-----------7----------o||
|-------------------------|-----------------------||


  2.
                          |----3----|   |---3---|
  E e e E E E +E.  S      Q    Q    Q   Q   Q   Q
|---------------------|----------------------------|
|---------------------|----------------------------|
|-----------5-(5)-----|-----------<12>---------<7>-|
|-------7---5-(5)-----|------<12>----------<7>-----|
|-0-0-0---0-------(7)S|=<12>-----------<7>---------|
|---------------------|----------------------------|


           \1.5/         \1.5/
           |------3------|
   H      +E      +E    +E      +Q
|-------------------------------------||
|-------------------------------------||
|-<5>----(<5>)---(<5>)-(<5>)---(<5>)--||
|-------------------------------------||
|-------------------------------------||
|-------------------------------------||


                                      ~~~~~~~
    |-3-|
    E E E E E E E E E   +E       +E   Q  +Q    E  E
||--------------------|-----------------------------|
||o-------------------|-----------------------------|
||--8p7p5-------------|---------------------------5-|
||--------7-7---5---5-|-(5)b5.5==(5)rh7--(7)--(7)---|
||o-------------------|-----------------------------|
||--------------------|-----------------------------|


                            PM|
  |-3-|
  E E E E E E E E E   +E  E E E Q   E  E
|-------------------|---------------------|
|-------------------|---------------------|
|-8p7p5-------------|-----------2------5--|
|-------7-7---5---5-|-(5)p0--------(0)----|
|-------------------|-------3-4-----------|
|-------------------|---------------------|


                     1.
                                    ~~~~~~~
  |-3-|
  E E E E E E E E E   +E       +E   Q  +E  S S  Q
|-------------------|-----------------------------------|
|-------------------|-----------------------------------|
|-8p7p5-------------|--------------------------[7]b8.5--|
|-------7-7---5---5-|-(5)b5.5==(5)rh7--(7)---x----------|
|-------------------|----------------------x------------|
|-------------------|-----------------------------------|


   E.      +S    Q   Q  Q    Q  Q  Q  Q
|--------------------------|--------------||
|--------------------------|-------------o||
|-[5]b6.5==(5)r------------|--------------||
|---------------[7]--6--5--|--------------||
|--------------------------|-7--6--5--3--o||
|--------------------------|--------------||


  2.
                ~
                               |--3--|  |--3--|  |--3--|  |--3--|
   E       +E   Q   Q   Q      E  E  E  E  E  E  E  E  E  E  E  E
|---------------------------|-------------------------------------|
|---------------------------|-------------------------------------|
|---------------------------|-------------------16h17h19-16h17-19-|
|-(5)b5.5==(5)r-7--(7)------|----------16h17h19-------------------|
|-------------------x\--5/--|-16h17h19----------------------------|
|---------------------------|-------------------------------------|


   |--3--|  |--3--|
   E  E  E  E  E  E  +Q    +Q
|----------16-19-17-(17)--(17)\--||
|-16h17h19-----------------------||
|--------------------------------||
|--------------------------------||
|--------------------------------||
|--------------------------------||


 Verse
                                                                         ~~~~
  E e e E E e e E   E E E E E Q.     E e e E E e e E   E e E E E E      +Q
|-----------------|----------------|-----------------|------------------------|
|-----------------|----------------|-----------------|------------------------|
|-----------------|-----------5----|-----------------|------------------------|
|-------7-------5-|-------7---5----|-------7-------5-|-------7----------------|
|-0-0-0---0-0-0---|-0-0-0---0------|-0-0-0---0-0-0---|-0-0-0---0-3b3.5==(3)r--|
|-----------------|----------------|-----------------|------------------------|


  E e e E E e e E   E e e E E E +Q
|-----------------|-------------------|
|-----------------|-------------------|
|-----------------|-----------5-(5)/--|
|-------7-------5-|-------7---5-(5)/--|
|-0-0-0---0-0-0---|-0-0-0---0---------|
|-----------------|-------------------|


                                                \1/
    |----3----|   |---3---|     |-3-|
    Q    Q    Q   Q   Q   Q     Q   H    +E    +E    +Q
|----------------------------|-----------------------------|
|----------------------------|-----<5>--(<5>)-(<5>)-(<5>)--|
|-----------<12>---------<7>-|-<5>-------------------------|
|------<12>----------<7>-----|-----------------------------|
|-<12>-----------<7>---------|-----------------------------|
|----------------------------|-----------------------------|


                                                                         ~~~~
  E e e E E e e E   E E E E E Q.     E e e E E e e E   E e E E E E      +Q
|-----------------|----------------|-----------------|------------------------|
|-----------------|----------------|-----------------|------------------------|
|-----------------|-----------5----|-----------------|------------------------|
|-------7-------5-|-------7---5----|-------7-------5-|-------7----------------|
|-0-0-0---0-0-0---|-0-0-0---0------|-0-0-0---0-0-0---|-0-0-0---0-3b3.5==(3)r--|
|-----------------|----------------|-----------------|------------------------|


  E e e E E e e E   E e e E E Q  E
|-----------------|----------------|
|-----------------|----------------|
|-----------------|-----------5----|
|-------7-------5-|-------7---5--x-|
|-0-0-0---0-0-0---|-0-0-0---0------|
|-----------------|----------------|


      \2.5__________/     \1.5/  \1.5/  \1.5/  \1.5/
                          |------3------|
  E E Q      +Q.   +E    +Q     +Q     +Q     +H
|----------------------|--------------------------------||
|----------------------|--------------------------------||
|-x--------------------|--------------------------------||
|-----0------(0)---(0)-|-(0)----(0)----(0)----(0)-------||
|----------------------|--------------------------------||
|----------------------|--------------------------------||


 Pre-Chorus
                                                |----3----|
  +E   Q.    Q   Q     Q   Q  Q  E E   +Q.   E +E  E  Q   Q
|-------------------|----------------|-----------------------|
|-------------------|----------------|-------------------<7>-|
|-------------------|----------------|-----------------------|
|-(0)-14----13--12--|-11--10--9----7-|-(7)---x-(x)---<7>-----|
|-----12----11--10--|--9---8--7--6-5-|-(5)-------------------|
|-------------------|----------------|-----------------------|


          \2.5/         \1.5/         \1.5/         \1.5/
                  |----------------3----------------|
   Q.    +E      +E    +E      +E    +E      +E    +E
|---------------------------------------------------------|
|---------------------------------------------------------|
|-<7>---(<7>)---(<7>)-(<7>)---(<7>)-(<7>)---(<7>)-(<7>)---|
|---------------------------------------------------------|
|---------------------------------------------------------|
|---------------------------------------------------------|


  E  Q.    Q   Q     Q   Q  Q  E E   +W           Q  Q  Q  Q
|-----------------|----------------|------------|--------------|
|-----------------|----------------|------------|--------------|
|-----------------|----------------|------------|--------------|
|---14----13--12--|-11--10--9----7-|-(7)--------|-xs=xs=x\-----|
|---12----11--10--|--9---8--7--6-5-|-(5)--------|-------xs=xs==|
|-----------------|----------------|------------|----------xs==|


                                                       \1.5
  E  Q.    Q   Q     Q   Q   Q   E E   +H     +S  S E +Q
|-----------------|------------------|------------------------|
|-----------------|------------------|------------------------|
|---16----15--14--|-13--12--11--10-9-|-(9)----(9)-------------|
|---16----15--14--|-13--12--11--10-9-|-(9)----(9)-------------|
|-x-14----13--12--|-11--10---9---8-7-|-(7)----(7)-x-----------|
|-x---------------|------------------|--------------0-(0)-----|


               \2.5___/
  +Q   +H      a     +E  +E    +E   Q.    Q   Q     Q   Q   Q  E E
|----------------------------|-------------------|------------------||
|----------------------------|-------------------|------------------||
|----------------------------|-----16----15--14--|-13--12--11--9-5--||
|----------------------------|-----16----15--14--|-13--12--11--9-5--||
|----------------------------|-----14----13--12--|-11--10---9--7-3--||
|-(0)--(0)----(0)----(0)-(0)-|-(0)---------------|------------------||


 Chorus
  +H..       E   H.      E  E
|--------------|--------------|
|--------------|--------------|
|-(5)--------x-|-7------------|
|-(5)--------x-|-7------------|
|-(3)--------x-|-5-------5s12-|
|--------------|--------------|


                           PM
   |--3--|  |--3--|  |--3--|  |--3--|    |--3--|  |--3--|
   E  E  E  E  E  E  E  E  E  E  E  E    E  E  E  E  E  E  +Q   E E
|-------------------------------------|----------11h14-12-(12)------|
|-------------------------------------|-11h12h14--------------------|
|-------------------11h12----11h12h14-|-----------------------------|
|----------11h12h14-------14----------|---------------------------5-|
|-11h12h14----------------------------|---------------------------3-|
|-------------------------------------|-------------------------0---|


                          \1/             \1/            \1/
  +W           H    Q  E +E     +Q    E  +E    +Q    E  +E
|------------|----------------|------------------------------|
|------------|----------------|------------------------------|
|------------|---------9-(9)--|-(9)--11-(11)--(11)--12-(12)--|
|-(5)--------|-7-------x------|-------x--------------x-------|
|-(3)--------|-5-------7-(7)--|-(7)---9--(9)---(9)--10-(10)--|
|------------|------0---------|------------------------------|


             \1/   |
   +Q    E  +E    +E    E   E E
|-------------------------------|
|-----------------------------5-|
|-(12)--14-(14)--(14)-(14)\---5-|
|--------x--------------------5-|
|-(10)--12-(12)--(12)-(12)\---3-|
|-----------------------0---0---|


  +H..       +E    H    +E  Q   a  E   E  a E Q   a E Q   a E   E E E E Q  E E
|----------------|-------------------|------------------------|----------------|
|-(5)--------(5)S|=7----(7)----------|------------------------|----------------|
|-(5)--------(5)S|=7----(7)----------|-9\-----7\------6\------|-4---2-1------5-|
|-(5)--------(5)S|=7----(7)----------|------------------------|---2-----2----5-|
|-(3)--------(3)S|=5----(5)-x\--xs11-|----xs9-----xs7-----xs5-|--------------3-|
|----------------|-------------------|------------------------|------------0---|


  +H     Q  Q    H.      E E
|--------------|-------------||
|--------------|-------------||
|-(5)----5-----|-------------||
|-(5)----5-----|-7-----------||
|-(3)----3--3S=|=5-------2s7-||
|--------------|-------------||


 Guitar Solo
                  PM
  |-3-| |-3-| |-3-| |-3-|   |-3-| |-3-| |-3-| |-3-|
  E E E E E E E E E E E E   E E E E E E E E E E E E
|-------------------------|--------------------------|
|-------------------------|--------------------------|
|-------------6h7---6-7-9-|-6h7---6-7-9-6h7---6-7-9--|
|-------6h7h9-----9-------|-----9-----------9--------|
|-6h7h9-------------------|--------------------------|
|-------------------------|--------------------------|


  |-3-| |-3-| |-3-|
  E E E E e e E E e e E      +E. +S  Q  E   Q.
|--------------------------|------------------------|
|--------------------------|---------------10b12====|
|-6h7---6------------------|------------------------|
|-----9---7-9-6h7---6------|------------x-----------|
|-----------------9---7b9==|=(7)r(7)p4--2/----------|
|--------------------------|------------------------|


                    T       T       T
              |----------9:8----------|
   +Q    +Q   S  S  S S  S  S S  S  T T
|----------------------------------------|
|-(10)r=(10)p=7h10-12p7h10-12p7h10-12p7s=|
|----------------------------------------|
|----------------------------------------|
|----------------------------------------|
|----------------------------------------|


       T      T      T      T      T
  |-------9:8--------| |-------9:8--------|
  S S  S S S  S S S  S S S  S S S  S S S  S
|-------------------------------------------|
|-6h9-12p6h9-12p6h9-12p5h8-12p5h8-12p5s4----|
|----------------------------------------h6-|
|-------------------------------------------|
|-------------------------------------------|
|-------------------------------------------|


                        T          ~~
  E E    +E  +E     +E  Q  E   +E  Q.   T T E.  Q
|----------------------------|-----------------10-----|
|-4--------------------------|-----------------13b15--|
|---6b8==(6)r(6)b8==(6)-9p=6r|=(6)p4----4sxp0---------|
|----------------------------|------------------------|
|----------------------------|------------------------|
|----------------------------|------------------------|


   Q.      E      +Q     Q         +E    Q.      S       E.    S   S E
|-12------13-----(13)---15------|-(15)--17-----------------------------|
|-15b17---16b18==(16)r--18b20===|=(18)r-20b22---21b25==(21)r-(21)\-----|
|-------------------------------|------------------------x-----x\----7s|
|-------------------------------|--------------------------------------|
|-------------------------------|--------------------------------------|
|-------------------------------|--------------------------------------|


                       |---3----|
   E     E  E  E      +E   +E   E  E  E
|-------10------------------------------|
|----------13-13b15==(13)r(13)p10----10-|
|-12b13---------------------------12----|
|---------------------------------------|
|---------------------------------------|
|---------------------------------------|


                                  \1/
              |---3----|                |---3----|
   E  E      +E   +E   E  E      +E    +E   +E   E
|--------------------------------------------------|
|--------------------------------------------------|
|-12-12b14==(12)r(12)p11-12b14==(12)--(12)r(12)p11h|
|--------------------------------------------------|
|--------------------------------------------------|
|--------------------------------------------------|

          \1/                       \1/
                 |---3----|
   E      +E    +E   +E   E  E      +E    +Q
|-----------------------------------------------|
|-----------------------------------------------|
|=12b14==(12)--(12)r(12)p11h12b14==(12)--(12)r--|
|-----------------------------------------------|
|-----------------------------------------------|
|-----------------------------------------------|


                                       |-----3-----|  |--3--|
   E  E  E  E      +E    E   +E   E    Q     Q     Q  Q  Q  Q
|----10-----------------------------|--------------------------|
|-10----13-13b15==(13)-(13)r(13)----|-13b15--------------------|
|-----------------------12--(12)p10-|-------12b13-12-11-10-----|
|-----------------------------------|----------------------12--|
|-----------------------------------|--------------------------|
|-----------------------------------|--------------------------|


   ~~
                         |-3-|
   H     +E   +E   Q     E E E E E E E E E
|---------------------||-------------------|
|---------------------||-------------------|
|---------------------||-6p5p3-------------|
|-12----(12)-(12)\-5--||-------5-5---3---3-|
|---------------------||-------------------|
|---------------------||-------------------|


          ~~~~~~~
                        |-3-|
  +E  +E  Q  +Q   E E   E E E E E E E E E
|---------------------|-------------------|
|---------------------|-------------------|
|---------------------|-6p5p3-------------|
|-(3)-(3)h5--(5)--5-5-|-------5-5---3---3-|
|---------------------|-------------------|
|---------------------|-------------------|


          PM~~
                     |-3-|
  +E  E E E Q.   E   E E E E E E E E E
|------------------|-------------------|
|------------------|-------------------|
|----------------0-|-8p7p5-------------|
|-(3)-------5------|-------7-7---5---5-|
|-----5-1-2--------|-------------------|
|------------------|-------------------|


                ~~~~~~~
                       |-3-|
  +E       +E   Q  +E. T T T  Q         Q      Q  Q  Q
|-------------------------------------|------------------|
|-------------------------------------|------------------|
|----------------------------[7]b9.5--|-5b5.5------------|
|-(5)b5.5==(5)rh7--(7)-----x--x-------|--------7--6--5---|
|------------------------x------------|------------------|
|----------------------x--------------|------------------|


                    Verse
  Q  Q  Q  Q         E e e E E e e E   E E E E E Q.     E e e E E e e E
|-----------------||-----------------|----------------|-----------------|
|-----------------||-----------------|----------------|-----------------|
|-----------------||-----------------|-----------5----|-----------------|
|-----------------||-------7-------5-|-------7---5----|-------7-------5-|
|-7--6--5--3b3.5--||-0-0-0---0-0-0---|-0-0-0---0------|-0-0-0---0-0-0---|
|-----------------||-----------------|----------------|-----------------|


                    ~~~~
  E e E E E E      +Q      E e e E E e e E   E e e E E  E  +Q
|------------------------|-----------------|---------------------|
|------------------------|-----------------|---------------------|
|------------------------|-----------------|------------5--(5)/--|
|-------7----------------|-------7-------5-|-------7---(5)-(5)/--|
|-0-0-0---0-3b3.5==(3)r--|-0-0-0---0-0-0---|-0-0-0---0-----------|
|------------------------|-----------------|---------------------|


                                 \1/
             |---3----|                |---3----|
  E  E      +E   +E   E  E      +E    +E   +E   E
|--------------------------------------------------|
|---20b22==(20)r(20)p17-20b22==(20)--(20)r(20)p17h=|
|-0------------------------------------------------|
|--------------------------------------------------|
|--------------------------------------------------|
|--------------------------------------------------|


       \1/           \0.5/
   |-----3------|             |-3-|
   Q  +Q       +Q   +Q       +E   Q    E e e E E e e E   E E E E E Q.
|------------------------------------|-----------------|--------------|
|-20-(20)b22==(20)r(20)-----(20)-----|-----------------|--------------|
|---------------------------------x\-|-----------------|-----------5--|
|--------------------------------17\-|-------7-------5-|-------7---5--|
|------------------------------------|-0-0-0---0-0-0---|-0-0-0---0----|
|------------------------------------|-----------------|--------------|


                                      ~~~~
  E e e E E e e E   E e E E E E      +Q      E e e E E e e E
|-----------------|------------------------|-----------------|
|-----------------|------------------------|-----------------|
|-----------------|------------------------|-----------------|
|-------7-------5-|-------7----------------|-------7-------5-|
|-0-0-0---0-0-0---|-0-0-0---0-3b3.5==(3)r--|-0-0-0---0-0-0---|
|-----------------|------------------------|-----------------|


                                            \1/   \1/
                                       |----3-----|
  E e e E E E +Q      E  E      +Q    +Q   +Q    +Q
|-------------------|---------------------------------|
|-------------------|---20-----(20)--(20)-(20)--(20)--|
|-----------5-(5)/--|-0-19b21==(19)--(19)-(19)--(19)--|
|-------7---5-(5)/--|---------------------------------|
|-0-0-0---0---------|---------------------------------|
|-------------------|---------------------------------|


    \1/   \1/   \1/   |
    |-----3-----|
   +Q    +Q    +Q    +Q    +Q
|---------------------------------||
|-(20)--(20)--(20)--(20)--(20)\---||
|-(19)--(19)--(19)--(19)--(19)r\--||
|---------------------------------||
|---------------------------------||
|---------------------------------||


 Chorus
  E  Q.    Q   Q     Q   Q  Q  E E
|-----------------|----------------|
|-----------------|----------------|
|-----------------|----------------|
|---14----13--12--|-11--10--9----7-|
|---12----11--10--|--9---8--7--6-5-|
|-----------------|----------------|


                                    \1.5____________/
              |----3----|
  +Q   +E  E +E  E  Q   Q     Q    +Q       +Q     +E    +E
|--------------------------|----------------------------------|
|----------------------<7>-|----------------------------------|
|--------------------------|-<7>--(<7>)----(<7>)--(<7>)-(<7>)-|
|-(7)--(7)-x-(x)---<7>-----|----------------------------------|
|-(5)--(5)-----------------|----------------------------------|
|--------------------------|----------------------------------|


   +E    Q.    Q   Q     Q   Q  Q  E E   +H.      Q    Q  Q  Q  Q
|---------------------|----------------|-------------|--------------|
|---------------------|----------------|-------------|--------------|
|-(<7>)---------------|----------------|-------------|--------------|
|-------14----13--12--|-11--10--9----7-|-(7)---------|--------------|
|-------12----11--10--|--9---8--7--6-5-|-(5)------xS=|=xs=xs=xs=xs==|
|---------------------|----------------|-------------|-xs=xs=xs=xs==|


  E   Q.    Q   Q     Q   Q   Q   E E
|------------------|------------------|
|------------------|------------------|
|----16----15--14--|-13--12--11--10-9-|
|----16----15--14--|-13--12--11--10-9-|
|-x\-14----13--12--|-11--10---9---8-7-|
|-x\---------------|------------------|


                    \1.5_________/
  Q  q  H          +Q      +Q   +Q   +Q
|----------------|--------------------------|
|----------------|--------------------------|
|-9--0--9b12=====|=(9)-----(9)--(9)--(9)rs==|
|-9--------------|--------------------------|
|-7--------------|--------------------------|
|----------------|--------------------------|


                                      Chorus
  E  Q.    Q   Q     Q   Q   Q  E E    +H.      +E  E
|-----------------|-----------------||----------------|
|-----------------|---------------5-||-(5)------(5)sx-|
|-x-16----15--14--|-13--12--11--9-5-||-(5)------(5)sx-|
|---16----15--14--|-13--12--11--9-5-||-(5)------(5)sx-|
|---14----13--12--|-11--10---9--7-3-||-(3)------(3)sx-|
|-----------------|-----------------||----------------|


                  |--3--|  |--3--|  |--3--|  |--3--|
  H.      E  E    E  E  E  E  E  E  E  E  E  E  E  E
|--------------|----------15h17h19----------15h17h19-|
|-7------------|-15h17h19----------15h17h19----------|
|-7-------7s19-|-------------------------------------|
|-7------------|-------------------------------------|
|-5------------|-------------------------------------|
|--------------|-------------------------------------|


   |--3--|  |--3--|
   E  E  E  E  E  E      +E.  S  E E
|-15h17h19---------------------------|
|----------17----17b20==(17)r-x\-----|
|-------------16--------------x\---5-|
|----------------------------------5-|
|--------------------------------x-3-|
|--------------------------------0---|


                                                         |-3-|
  +H.      +E  E   H.      E E   S S S S S S S S S S S S E E E
|----------------|-----------5-|-9p7p5---5-9p7p5---5-9p7p5---5-|
|----------------|-------------|-------9---------9---------9---|
|-(5)------(5)sx-|-7-----------|-------------------------------|
|-(5)------(5)-x-|-7-----------|-------------------------------|
|-(3)------(3)sx-|-5-----------|-------------------------------|
|----------------|-------------|-------------------------------|


  E Q.   a  E. S E E   +H..       +E     S E. +E  E  E  E  Q
|-4p0----------------|-----------------|------------------19b22====|
|--------xs12\-----5-|-(5)--------(5)/-|---7--(7)------17----------|
|------------------5-|-(5)--------(5)/-|-x-7--(7)-7s18-------------|
|------------------5-|-(5)--------(5)/-|-x-7--(7)------------------|
|------------------3-|-(3)--------(3)/-|-x-5--(5)------------------|
|----------------0---|-----------------|-x-------------------------|


                               ~~~~~~~~~~
    |---3---|  |--3--|
   +Q    Q  Q  Q  Q  Q         Q     Q     Q   E E
|-(19)r-19-18-17-----------|-----------------------|
|----------------20-20b24==|=(20)--(20)r---------5-|
|--------------------------|---x-----------------5-|
|--------------------------|---------------------5-|
|--------------------------|---------------------3-|
|--------------------------|--------(0)---19\--0---|


  +H..       +E    H.      E  E
|----------------|---------0--------||
|-(5)--------(5)S|=7-------0-10b12==||
|-(5)--------(5)S|=7----------------||
|-(5)--------(5)S|=7----------------||
|-(3)--------(3)S|=5----------------||
|----------------|------------------||


 Guitar Solo
    |--3--|  |-3-|  |-3--| |-3--|   |-3--| |-3--|  |-3-|  |-3--|
   +E   E E  E E E  E E  E E E  E   E  E E E  E E  E E E  E E  E
|-------7-------------0-----------|-0-----------0-----------0----|
|-(10)r---7-10p7p0------10p7p0----|---10p7p0------10p7p0------10p|
|------------------10----------10-|----------10----------10------|
|---------------------------------|------------------------------|
|---------------------------------|------------------------------|
|---------------------------------|------------------------------|


  |-3--| |-3--|
  E E  E E  E E S  S S  S S S  S S
|--------0-----------0--------------|
|-7p0------10p7p0------10p7p0----7--|
|-----10----------10----------10----|
|-----------------------------------|
|-----------------------------------|
|-----------------------------------|


                    ~~~~
           |--3---|
  S E.    +E  +E  E Q     E  E
|-7--------------------------------|
|---------------------------10b12==|
|---9b11==(9)r(9)p7-9b11--0--------|
|----------------------------------|
|----------------------------------|
|----------------------------------|


        TPTPTPTP TP TP TP  TP TP TP  TP TP TPTP TP TPTP TP TPTP TP TP
          |-3-|  |--3--|   |--3--|   |--3--| |--3--| |--3--| |--3--|
   +E   E E E E  E  E  E   E  E  E   E  E  E E  E  E E  E  E E  E  E
|-------7-9-9-9-10-10-10/-12-12-12-|-9-10-12-9-10-12-9-10-12-9-10-12/--|
|-(10)r----------------------------|-----------------------------------|
|----------------------------------|-----------------------------------|
|----------------------------------|-----------------------------------|
|----------------------------------|-----------------------------------|
|----------------------------------|-----------------------------------|


   TP TP TP TP TPTP              ~~~~
   |--3--|  |-3--|                           |--3--|
   E  E  E  E  E E  H           +Q    +Q     E  E  E  E  E
|-10-12-14-12-14-x-12b14=====|=(12)--(12)r\----------12--------|
|----------------------------|---------------4s13s14----15b17==|
|----------------------------|---------------------------------|
|----------------------------|---------------------------------|
|----------------------------|---------------------------------|
|----------------------------|---------------------------------|


    ~~~~~    ~~~~~~~~~~~~
                             |--3--|
   +Q     E  E      +E    E  E  E  E
|--------12--------------12-15p12-15p=|
|-(15)r-----15b17==(15)r--------------|
|-------------------------------------|
|-------------------------------------|
|-------------------------------------|
|-------------------------------------|


   |--3--|  |--3--|  |--3--|  |--3--|
   E  E  E  E  E  E  E  E  E  E  E  E
|-12----14p12----12-------------------|
|----15-------15----15-14p12----14p12-|
|----------------------------15-------|
|-------------------------------------|
|-------------------------------------|
|-------------------------------------|


                                              ~~~~~~
   |--3--|  |--3--|  |--3--|  |----3-----|
   E  E  E  E  E  E  E  E  E  E     +E   E    Q.        E   E. S  E E
|------------------------------------------|---------------------------|
|----12------------------------------------|---------------------------|
|-14----15p14p12----14----12-14b16r(14)p12-|-14b16====(14)rs4--7s16----|
|----------------14----14------------------|------------xs==x----------|
|------------------------------------------|---------------------------|
|------------------------------------------|---------------------------|


   |--3--|  |--3--|  |--3--|  |--3--|    |--3--|  |----3-----|
   E  E  E  E  E  E  E  E  E  E  E  E    E  E  E  E  E      +E   +E.  +S   E  E
|----------15-17-19----------15-17-19-|----------15-17b19==(17)-(17)r(17)-------|
|-15h17h19----------15h17h19----------|-15h17h19--------------------------------|
|-------------------------------------|-----------------------------------16\---|
|-------------------------------------|-----------------------------------------|
|-------------------------------------|-----------------------------------------|
|-------------------------------------|-----------------------------------------|


                            ~~
   E  E      +E    S   +S   Q   +Q      Q  Q   Q   Q
|-------------------------------------|-----------------||
|-12-15b17==(15)-(15)r(15)------------|-----------------||
|-----------------14--(14)-12--(12)\--|-----------------||
|-------------------------------------|-----------------||
|-------------------------------------|-7--9--10--11----||
|-------------------------------------|-----------------||


   Q  Q  H      Wx15
|-------------|---------||
|-------------|---------||
|-------------|---------||
|-14----------|---------||
|-12----------|---------||
|-------------|---------||


  |-3-|     |-3-|        |-3-|      |-3--|         |-3--|       |--3--|
  E E E E E E E E E E    E E E E E  E  E E  E E    E  E E  E E  E  E  E  E  E
|---------------------|-------------------------|-----------------------------|
|---------------------|-------------------------|-----------------------------|
|-8p7p5---5-9p8p6---6-|-10p9p7---7-11p10p8----8-|-12p11p9----9-13p12p10----10-|
|-------7---------8---|--------9-----------10---|---------11------------12----|
|---------------------|-------------------------|-----------------------------|
|---------------------|-------------------------|-----------------------------|


                               Out-Chorus
   |--3--|
   E  E  E  Q.       E a E E    +H..       +E    H.      E E
|----------------------------||----------------|-------------|
|--------------------------5-||-(5)--------(5)S|=7---------9-|
|-14p13p11-----------------5-||-(5)--------(5)S|=7---------9-|
|----------13tr14----------5-||-(5)--------(5)S|=7---------9-|
|-------------------12s3p0-3-||-(3)--------(3)-|-5-------7---|
|----------------------------||----------------|-------------|


           \1____________________/
  +Q   Q  +Q    +Q     +H.      +E  E   +W
|--------------------|----------------|--------|
|-(9)----------------|--------------5-|-(5)----|
|-(9)----------------|--------------5-|-(5)----|
|-(9)----------------|--------------5-|-(5)----|
|--------------------|--------------3-|-(3)----|
|------0--(0)---(0)--|-(0)------(0)---|--------|


  H    Q  E E   +Q   E  E  +Q   E E   +Q   E  E  +Q    E E
|-------------|---------------------|----------------------|
|-7----7----9-|-(9)----10-(10)----9-|-(9)----10-(10)\----5-|
|-7----7----9-|-(9)-----9--(9)----9-|-(9)-----9--(9)\----5-|
|-7----7----9-|-(9)-----9--(9)----9-|-(9)-----9--(9)\----5-|
|-5----5--7---|------7----------7---|------7-------------3-|
|-------------|---------------------|------------------0---|


                            \1/    |        \1/   |        \1/
  +H..       E   H    Q  E +E     +Q    E  +E    +Q    E  +E
|--------------|----------------|------------------------------|
|-(5)--------x-|-7--------------|------------------------------|
|-(5)--------x-|-7-------9-(9)--|-(9)--11-(11)--(11)--12-(12)--|
|-(5)--------x-|-7-------x-(x)--|-------x--(x)---(x)---x--(x)--|
|-(3)--------x-|-5----0--7-(7)--|-(7)---9--(9)---(9)--10-(10)--|
|--------------|------0---------|------------------------------|


                          H.=H
    |        \1/   |                                           \2.5/
   +Q    E  +E    +Q    E E   +H..       E   H    +E   E   E  +E
|---------------------------|--------------|-------------------------||
|-------------------------5-|-(5)--------xS|=7----(7)----------------||
|-(12)--14-(14)--(14)\----5-|-(5)--------xS|=7----(7)----------------||
|--------x--(x)-----------5-|-(5)--------xS|=7----(7)----------------||
|-(10)--12-(12)--(12)\----3-|-(3)--------xS|=5----(5)--xs==x---------||
|-----------------------0-3-|-(3)--------xS|=5----(5)-(5)s12-(12)----||


 Free Time
  TP
  H    a  T  T  T     T  S     +T   T  T  T  T  T  T  T  T  T
|-----------12-------12---------------------------12----------:
|--------------15b17----15b17r(15)p12----12-15p12----12-15p12-:
|-9----xs13---------------------------14----------------------:
|-9-----------------------------------------------------------:
|-7-----------------------------------------------------------:
|-0-----------------------------------------------------------:


                                                                                                                 H.=H
                                       |------6-------|  |------6-------|  |------6-------|  |----------9:8----------|
   T  T  T  T  T  T  T  T  T  T  T  T  T  T  T  T  T  T  T  T  T  T  T  T  T  T  T  T  T  T  T  T  T  T  T  T  T  T  T
|-----------------------------------------------------------------------------------------------------------------------:
|----12-----------------------------------------------------------------------------------------------------------------:
|-14----15-14p12----14----11h12p11----11-12-14p12p11----11-12-14p12p11----11-12-14p12p11----11--------------------------:
|----------------14----14----------14----------------14----------------14----------------14----12-14-11h12p11----11-----:
|-------------------------------------------------------------------------------------------------------------14----12s=:
|-----------------------------------------------------------------------------------------------------------------------:


              \6_________/
   |-3-|                        |-3-|
   S S S  S S Q    +Q   +E. +T  X X X
|-------------------------------------:
|-------------------------------------:
|-------------------------------------:
|-----------------------------------x-:
|-11s9s7s10s7---------------------x---:
|-------------0----(0)--(0)-(0)-x-----:


              \1/      \1.5/      \1.5/      \1.5/      \1.5/      \1.5/
  Q      +S  +S   +S  +S     +S  +S     +S  +S     +S  +S     +S  +S
|------------------------------------------------------------------------:
|------------------------------------------------------------------------:
|-9b12===(9)-(9)--(9)-(9)----(9)-(9)----(9)-(9)----(9)-(9)----(9)-(9)----:
|------------------------------------------------------------------------:
|------------------------------------------------------------------------:
|------------------------------------------------------------------------:


       \1.5/      \1.5/      \1.5/      \1.5/      \1.5/      \2.5_______/
   S  +S     +S  +S     +S  +S     +S  +S     +S  +S     +E  +S     +S  +S  +S
|-------------------------------------------------------------------------------:
|-------------------------------------------------------------------------------:
|-(9)-(9)----(9)-(9)----(9)-(9)----(9)-(9)----(9)-(9)----(9)-(9)----(9)-(9)-(9)-:
|-------------------------------------------------------------------------------:
|-------------------------------------------------------------------------------:
|-------------------------------------------------------------------------------:


  S  E. Q  H
|-7-------------*|
|-7\------------*|
|-7-------------*|
|-6\------------*|
|-7\------------*|
|---------------*|


6. Jamie's Cryin'


TUNE DOWN 1/2 STEP               TAB EXPLANAITON
                                 ~ = VIBRATO
                                 ^ = BEND
                                 ()= ARTIFICIAL HARMONICS
                                 P.M.= PALM MUTE
                                 X = MUFFLE STRING
                                          ~~~~~~~~~~~~~~~~
E---------------------------------------------------------------|
B------14^-(14)--(14)-(14)-X--15^-12^-12-(12)-(12)-(12)---------|
G----X---------------------X------------------------------------|
D--X------------------------------------------------------------|
A---------------------------------------------------------------|
E---------------------------------------------------------------|
    P.M.----|  ~~~~~~~~~~  P.M.---------------------------------|
E---------------------------------------------------------------|
B---------------------------------------------------------------|
G---------------------------------------------------------------|
D---------------------------------------------------------------|
A---------------------------------------------------------------|
E-0--0-0--0-0--7-6-5-3-0--0-0--0--0--7-6-5-3--------------------|

E----------------------------------------------------------------|
B-------14^--14--(14)\-12--10--10^--10---9-(9)-(9)---------------|
G----X-----------------------------------------------------------|
D--X-------------------------------------------------------------|
A----------------------------------------------------------------|
E----------------------------------------------------------------|
  P.M.     P.M.---|                     P.M.    P.M.
E-------7-------------0--(0)------------------7----------(0)--(0)-------------------|
B-------7-------------7--(7)------------------7-----------0---(0)-------------------|
G-------7-------------7--(7)------------------7-----------7---(7)-------------------|
D---------------------0--(0)------------------------------0---(0)-------------------|
A---------------------X-----------------------------------5---(5)-------------------|
E--0--------0--0------7--(7)-----7-6-5-3--0------0--0-----7---(7)---7-6-5-3---------|
   P.M.                               P.M.
E---------7---X-X----------------0-0--------7--X-X---------------0----|
B---------7---X-X--7-(7)---X-X---5-5--------7--X-X--------X-X--5------|
G---------7---X-X--7-(7)---X-X---7-7--------7--X-X-7--(7)-X-X--7----7-|
D-------------X-X----------X-X---7-7-----------X-X-7--(7)-X-X--7----7-|
A--------------------------X-X----------------------------X-X---------|
E---0----------------------------------0------------------------------|
 P.M.                               P.M.      P.M.
E------7-X-X------------------0--0---------7------------------------------|
B------7-X-X--7--(7)---X--X---5--5---------7-----------0-(0)--------------|
G------7-X-X--7--(7)---X--X---7--7---------7-----------7-(7)--------------|
D--------X-X-----------X--X---7--7---------------------0-(0)--------------|
A----------------------X--X------------------------X----------------------|
E--0----------------------------------O---------0--0---7-(7)---7-6-5-3----|
                             |CHORUS|
                                    P.M.       P.M.
E------------------------------------------7---------0-(0)-------------|
B------------------------------------------7---------7-(7)-------------|
G------------------------------------------7---------7-(7)-------------|
D-------------0-4-2--(2)--2-2-2-X--------------------0-(0)-------------|
A------0-4-2------0--(0)--0-0-0-2--------------------X-----------------|
E---2---------------------------------0--------0-0---7-(7)---7-6-5-3---|
     P.M.      P.M.         ~~~~~~~~~~~~~              P.M.
E-----------7------------------------------------------------7--------0-(0)---|
B-----------7------------------------------------------------7--------7-(7)---|
G-----------7------------------------------------------------7--------7-(7)---|
D---------------------------------------------------------------------0-(0)---|
A---------------------7^-----5--(5)-----X\----------------------------5-(5)---|
E-----0----------0----------------------12\--7--6--5--3--0-------0-0--7-(7)---|
                 P.M.       P.M.         ~~~~~~~~~~~
E-------------------------7----------------------------------------|
B-------------------------7----------------------------------------|
G-------------------------7----------------------------------------|
D------------------------------------------------------------------|
A----------------------------------7^----5-----(5)-----------------|
E-----7--6--5--3--0----------0-------------------------7-6-5-3-----|

E-------------0----------------0------------------0-------------0---0-|
B-----0---0------0-----0--0--------------0---0------0-----0--0--------|
G-----6---7--------7---4--6-------6--6---6---7--------7---4--6-----6--|
D-----7---9------------5--7--------------7---9------------5--7--------|
A---------------------------------------------------------------------|
E---------------------------------------------------------------------|

E-----------0-------------0-------------------------0-------0--------|
B---5---7-----0-----3--5----0-----5--7--------7---------3---5--------|
G---6---7-------7---4--6------6---6--7-----------7------4---6--------|
D---7---9-----------5--7----------7--9------------------5---7--------|
A--------------------------------------------------------------------|
E---------------------------------------------------------------12\--|
        THEN GO INTO THE CHORUS AGAIN
   ~~~~~~~~~~~~~~~~~                   HAMMER ON
E-------------------------------------------------------------------|
B------------------------------5-------4----5----7--7-5-7-7-5-------|
G------------------------------6--------------------7-7-7-7-7-(7)---|
D------------------------------6------------------------------(7)---|
A-------(5)--------------------4------------------------------------|
E-------------------7---6-5-4---------------------------------------|

E------------------------------------------2--0--2---------------------------|
B--------------4-5---4---------------------2--0--2---------5--4----------7---|
G--------------------------6\----------------------------6------6--------7---|
D----------6---------------------------4---------------6----------6------7---|
A-------4---------------------------4--------------------------------5-------|
E--------------------------------2-------------------------------------------|
                    |EDDIE'S GUITAR SOLO|
                        ~~~~~~~~~~~~~~~
E-------------5-4-----------------------------------------|
B------------------------5--------------------------------|
G---------------------------4-----------------------------|
D---------------------------------------------------------|
A------------------------------------7-----7^---5---------|
E----0---(0)-------------------14\-0----0-----------------|

E---------------------0--0-------------------------------------0-0----------|
B---------------------0--0-------------------------------------0-0----------|
G---------------------------------------------------------------------------|
D---------------------------------------------------------------------------|
A-----(5)--(5)-----------------------7----7^--5--(5)-(5)--------------------|
E---------------3-4-----------3-4-0-----0-----------------3-4------3-4------|

E-------------------------------------------------------------------|
B---------9--9^--7--(7)-7\14\-X--------------------------9---9^--7--|
G---------9--9^--7--(7)-7\14\-X--------------------------9---9^--7--|
D-------------------------------------------------------------------|
A---------------------------------5-6-7-(7)-(7)\-2\-X---------------|
E----0--------------------------------------------------------------|
     THEN YOU PLAY THE CHORUS
E-----------------------------------------|
B-----------------------------------------|
G-----------------------------------------|
D----------------------0-4-2---2-2-2-4----|
A---------------0-4-2------0---0-0-0-2----|
E---7--6-5-3-2----------------------------|

THEN YOU PLAY THE BEGINNING THEN YOU PLAY THE CHORUS A FEW TIMES


7.Atomic Punk


Gtr I (Eb Ab Db Gb Bb Eb) - 'Edward Van Halen - Rhythm / Lead w/dist'

Intro
  Q=198
 4/4
  Gtr I
With Phaser set for slow sweep rub edge of pickhand over bridge pickup 
while muting strings with fretting hand.

  E E E E E E E E   E E E E E E E E   E E E E E E E E   E E E E E E E E
|-x-x-x-x-x-x-x-x-|-x-x-x-x-x-x-x-x-|-x-x-x-x-x-x-x-x-|-x-x-x-x-x-x-x-x-|
|-x-x-x-x-x-x-x-x-|-x-x-x-x-x-x-x-x-|-x-x-x-x-x-x-x-x-|-x-x-x-x-x-x-x-x-|
|-x-x-x-x-x-x-x-x-|-x-x-x-x-x-x-x-x-|-x-x-x-x-x-x-x-x-|-x-x-x-x-x-x-x-x-|
|-x-x-x-x-x-x-x-x-|-x-x-x-x-x-x-x-x-|-x-x-x-x-x-x-x-x-|-x-x-x-x-x-x-x-x-|
|-x-x-x-x-x-x-x-x-|-x-x-x-x-x-x-x-x-|-x-x-x-x-x-x-x-x-|-x-x-x-x-x-x-x-x-|
|-x-x-x-x-x-x-x-x-|-x-x-x-x-x-x-x-x-|-x-x-x-x-x-x-x-x-|-x-x-x-x-x-x-x-x-|


                                                                |-3-| |-3-|
  E E E E E E E E   E E E E E E E E   E E E E E E E E   E E E E E E E E E E
|-x-x-x-x-x-x-x-x-|-x-x-x-x-x-x-x-x-|-x-x-x-x-x-x-x-x-|-x-x-x-x-x-x-x-x-x-x---|
|-x-x-x-x-x-x-x-x-|-x-x-x-x-x-x-x-x-|-x-x-x-x-x-x-x-x-|-x-x-x-x-x-x-x-x-x-x---|
|-x-x-x-x-x-x-x-x-|-x-x-x-x-x-x-x-x-|-x-x-x-x-x-x-x-x-|-x-x-x-x-x-x-x-x-x-x---|
|-x-x-x-x-x-x-x-x-|-x-x-x-x-x-x-x-x-|-x-x-x-x-x-x-x-x-|-x-x-x-x-x-x-x-x-x-x---|
|-x-x-x-x-x-x-x-x-|-x-x-x-x-x-x-x-x-|-x-x-x-x-x-x-x-x-|-x-x-x-x-x-x-x-x-x-x---|
|-x-x-x-x-x-x-x-x-|-x-x-x-x-x-x-x-x-|-x-x-x-x-x-x-x-x-|-x-x-x-x-x-x-x-x-x-x---|


                                                                |-3-| |-3-|
  E E E E E E E E   E E E E E E E E   E E E E E E E E   E E E E E E E E E E
|-x-x-x-x-x-x-x-x-|-x-x-x-x-x-x-x-x-|-x-x-x-x-x-x-x-x-|-x-x-x-x-x-x-x-x-x-x---|
|-x-x-x-x-x-x-x-x-|-x-x-x-x-x-x-x-x-|-x-x-x-x-x-x-x-x-|-x-x-x-x-x-x-x-x-x-x---|
|-x-x-x-x-x-x-x-x-|-x-x-x-x-x-x-x-x-|-x-x-x-x-x-x-x-x-|-x-x-x-x-x-x-x-x-x-x---|
|-x-x-x-x-x-x-x-x-|-x-x-x-x-x-x-x-x-|-x-x-x-x-x-x-x-x-|-x-x-x-x-x-x-x-x-x-x---|
|-x-x-x-x-x-x-x-x-|-x-x-x-x-x-x-x-x-|-x-x-x-x-x-x-x-x-|-x-x-x-x-x-x-x-x-x-x---|
|-x-x-x-x-x-x-x-x-|-x-x-x-x-x-x-x-x-|-x-x-x-x-x-x-x-x-|-x-x-x-x-x-x-x-x-x-x---|


  E E E E E E E E   E E E E E E E E   E E E E E E E E   E E E E E E Q
|-x-x-x-x-x-x-x-x-|-x-x-x-x-x-x-x-x-|-x-x-x-x-x-x-x-x-|-x-x-x-x-x-x-----||
|-x-x-x-x-x-x-x-x-|-x-x-x-x-x-x-x-x-|-x-x-x-x-x-x-x-x-|-x-x-x-x-x-x-----||
|-x-x-x-x-x-x-x-x-|-x-x-x-x-x-x-x-x-|-x-x-x-x-x-x-x-x-|-x-x-x-x-x-x-----||
|-x-x-x-x-x-x-x-x-|-x-x-x-x-x-x-x-x-|-x-x-x-x-x-x-x-x-|-x-x-x-x-x-x-----||
|-x-x-x-x-x-x-x-x-|-x-x-x-x-x-x-x-x-|-x-x-x-x-x-x-x-x-|-x-x-x-x-x-x-----||
|-x-x-x-x-x-x-x-x-|-x-x-x-x-x-x-x-x-|-x-x-x-x-x-x-x-x-|-x-x-x-x-x-x-7/--||


              ~~~~~~~~~
  Q  E  E E E Q    +Q   Q  Q  Q    Q  E  E E E Q
|----------------|---------------|----------------|
|----------------|---------------|----------------|
|----------------|---------4--7--|----------------|
|----------------|---------4--7--|----------------|
|----7-10---7-9--|-(9)--2--2--5--|----7-10---7-9--|
|-0--------------|------0--------|-0--------------|


      \1.5___/       \1.5/      \1.5/      \1.5/
                     |------------6:5-------------|
  +E  E     +S  +S  +E     +E  +E     +E  +E     +E
|------------------------------------------------------|
|------------------------------------------------------|
|-----7-----(7)-(7)-(7)----(7)-(7)----(7)-(7)----(7)---|
|------------------------------------------------------|
|-(9)--------------------------------------------------|
|------------------------------------------------------|


              ~~~~~~~~~
  Q  E  E E E Q    +Q   S S E Q  Q
|----------------|------------------|
|----------------|------------------|
|----------------|------------4--9--|
|----------------|------x-x-2-4--9--|
|----7-10---7-9--|-(9)--2-2-2-2--7--|
|-0--------------|------0-0-0-------|


              \3.5______/        \6_____________/
  Q  E  E E E Q        +E  +S  S Q    +Q   +E  +E
|--------------------|-------------------------------||
|--------------------|-------------------------------||
|--------------------|-------------------------------||
|--------------------|-------------------------------||
|----7-10---7-9------|-(9)-(9)-----------------------||
|-0------------------|-----------0----(0)--(0)-(0)---||


 Verse 1
           PM---------|                      PM------|
  H.       E  E   E E E E E E E E   +H.      E E   E E E E E E E E
|---------------|-----------------|--------------|-----------------|
|-3-------------|---------------3-|-(3)----------|-----------------|
|-2-------------|---------------2-|-(2)----------|-----------------|
|-0-------(0)-0-|-0-0-0-0-------0-|-(0)------0-0-|-0-0-0-0---------|
|---------------|---------3p2-0---|--------------|---------3p2p0---|
|---------------|-----------------|--------------|---------------0-|


                ~~~~~~~~~                        ~~~~~~~~~
  +Q   E  E E E Q    +Q   Q  Q  Q    Q  E  E E E Q    +Q   Q  Q  Q
|------------------|---------------|----------------|---------------|
|------------------|---------------|----------------|---------------|
|------------------|---------4--7--|----------------|---------7--4--|
|------------------|---------4--7--|----------------|---------7--4--|
|------7-10---7-9--|-(9)--2--2--5--|----7-10---7-9--|-(9)-----5--2--|
|-(0)--------------|------0--------|-0--------------|------0--------|


                                           PM------|
  H    Q  E E   E E E E E E E E   +H.      E E   E E E E E E E E
|-------------|-----------------|--------------|-----------------|
|-------------|---------------3-|-(3)----------|-----------------|
|-7----2------|---------------2-|-(2)----------|-----------------|
|-7----0--0-0-|-0-0-0-0-------0-|-(0)------0-0-|-0-0-0-0---------|
|-5-----------|---------3p2-0---|--------------|---------3p2p0---|
|-------------|-----------------|--------------|---------------0-|


                ~~~~~~~~~
  +Q   E  E E E Q    +Q   S S E Q  Q
|------------------|------------------|
|------------------|------------------|
|------------------|------------4--7--|
|------------------|------x-x-2-4--7--|
|------7-10---7-9--|-(9)--2-2-2-2--5--|
|-(0)--------------|------0-0-0-------|


                    \1.5       \6
  Q  E  E E E Q    +E    +S  S Q   +Q   +Q
|----------------|-----------------------------||
|----------------|-----------------------------||
|----------------|-----------------------------||
|----------------|-----------------------------||
|----7-10---7-9--|-(9)---(9)-------------------||
|-0--------------|-------------0---(0)--(0)----||


 Chorus
  W          Q  Q  Q  Q    H    H      +H.       Q
|-0--------|-0--0--0-----|------0----|-(0)-----------|
|-0--------|-0--0--0-----|------0----|-(0)-----------|
|-9--------|----------9S=|=7---------|---------------|
|-9--------|----------9S=|=7---------|---------------|
|-7--------|----------7S=|=5---------|---------------|
|-0--------|-------------|-----------|----------10\--|

as intro but use Flanger
                                                   ~~~~~~~~~
  E E E E E E E E   E E E E E E E  E   Q  E  E E E Q    +Q   S S E Q  Q
|-x-x-x-x-x-x-x-x-|-x-x-x-x-x-x------|----------------|------------------|
|-x-x-x-x-x-x-x-x-|-x-x-x-x-x-x------|----------------|------------------|
|-x-x-x-x-x-x-x-x-|-x-x-x-x-x-x------|----------------|------------4--7--|
|-x-x-x-x-x-x-x-x-|-x-x-x-x-x-x------|----------------|------x-x-2-4--7--|
|-x-x-x-x-x-x-x-x-|-x-x-x-x-x-x------|----7-10---7-9--|-(9)--2-2-2-2--5--|
|-x-x-x-x-x-x-x-x-|-x-x-x-x-x-x-7s15-|-0--------------|------0-0-0-------|


                        \2.5_________________/
                                                                  ~
  Q  E  E E E Q    +E   Q       +S   +S  Q  +E  +E    Q  E  E E E Q
|----------------|----------------------------------|----------------|
|----------------|----------------------------------|----------------|
|----------------|-----12------(12)-(12)p0--(0)-(0)-|----------------|
|----------------|----------------------------------|----------------|
|----7-10---7-9--|-(9)------------------------------|----7-10---7-9--|
|-0--------------|----------------------------------|-0--------------|


                                                     \1/    \1/    \1/
   ~~~
  +Q   S S E Q  Q    Q  E  E E E Q     E  E   Q     +E     +E     +Q
|------------------|----------------|-----------------------------------||
|------------------|----------------|-----------------------------------||
|------------4--7--|----------------|-----------------------------------||
|------2-2-2-4--7--|----------------|-------<12>--(<12>)-(<12>)-(<12>)--||
|-(9)--2-2-2-2--5--|----7-10---7-9s=|=14-12-----------------------------||
|------0-0-0-------|-0--------------|-----------------------------------||


 Verse 2
          PM--------|                              PM--|
  H.      E E   E E E E E E E E   +H.      E E   E E E E E E E E
|-------------|-----------------|--------------|-----------------|
|-3-----------|---------------3-|-(3)----------|-----------------|
|-2-----------|---------------2-|-(2)----------|-----------------|
|-0-------0-0-|-0-0-0-0-------0-|-(0)------0-0-|-0-0-0-0---------|
|-------------|---------3p2-0---|--------------|---------3p2p0---|
|-------------|-----------------|--------------|---------------0-|


                ~~~~~~~~~                           ~~~~~~~~~
  +Q   E  E E E Q    +Q   S S E Q  Q    Q  E  E E E Q    +Q   Q  Q  Q
|------------------|------------------|----------------|---------------|
|------------------|------------------|----------------|---------------|
|------------------|------------4--7--|----------------|---------7--4--|
|------------------|------x-x-2-4--7--|----------------|---------7--4--|
|------7-10---7-9--|-(9)--2-2-2-2--5--|----7-10---7-9--|-(9)--2--5--2--|
|-(0)--------------|------0-0-0-------|-0--------------|------0--------|


                                           PM----|       PM
  H.      E E   E E E E E E E E   +H.      E E   E E  E  E E E E E
|-------------|-----------------|--------------|-------------------|
|-------------|---------------3-|-(3)----------|---3---------------|
|-7-------7-7-|-7-7-x-x-------2-|-(2)----------|---2---------------|
|-7-------7-7-|-7-7-x-x-------0-|-(0)------0-0-|-0-0-(0)-0---------|
|-5-------5-5-|-5-5-x-x-3p2-0---|--------------|-----------3p2p0---|
|-------------|-----------------|--------------|-----------------0-|


                ~~~~~~~~~                           ~~~~~~~~~
  +Q   E  E E E Q    +Q   S S E Q  Q    Q  E  E E E Q    +Q   E E Q  Q
|------------------|------------------|----------------|----------------||
|------------------|------------------|----------------|----------------||
|------------------|------------4--7--|----------------|----------7--4--||
|------------------|------------4--7--|----------------|----------7--4--||
|------7-10---7-9--|-(9)--2-2-2-2--5--|----7-10---7-9--|-(9)--2-2-5--2--||
|-(0)--------------|------0-0-0-------|-0-------x------|------0-0-------||


 Chorus
  W            +H.      +E  E   H    H
|-0----------|-(0)------------|------0----|
|-0----------|-(0)------------|------0----|
|-9----------|-(9)------(9)s7-|-7---------|
|-9----------|-(9)------(9)s7-|-7---------|
|-7----------|-(7)------(7)s5-|-5---------|
|---------0--|-(0)------------|-----------|
  H    Q  Q


  +H.        Q     E E E E E E E E   E E E E Q  E a  E
|-(0)------------|-x-x-x-x-x-x-x-x-|-x-x-x-x-0--0------||
|-(0)------------|-x-x-x-x-x-x-x-x-|-x-x-x-x-0--0-xs15-||
|----------------|-x-x-x-x-x-x-x-x-|-x-x-x-x-x--x------||
|----------------|-x-x-x-x-x-x-x-x-|-x-x-x-x-x--x------||
|----------------|-x-x-x-x-x-x-x-x-|-x-x-x-x-----------||
|----------/10\--|-x-x-x-x-x-x-x-x-|-x-x-x-x-----------||


 Guitar Solo
      ~~~~~      ~~~~~                           TP TP TP
                                                 |--3--|
   E  Q.      E  Q      E    E     E  E.     S   Q  Q  Q
|-12---------12--------12-|-------12-15b17==15r-15-14-12-|
|----15b17------15b17-----|-15b17------------------------|
|-------------------------|------------------------------|
|-------------------------|------------------------------|
|-------------------------|------------------------------|
|-------------------------|------------------------------|


   ~~~~~             ~~~~~
                             |--3--|
   Q      E  E      +E    E  E  E  E
|--------12--------------------------|
|-15b17-----15b17==(15)r-12-15p12----|
|---------------------------------15-|
|------------------------------------|
|------------------------------------|
|------------------------------------|


                                                  ~~~~~         ~~~~~
   |--3--|  |--3--|  |--3--|
   E  E  E  E  E  E  E  E  E  E        +E      E  Q.      S  S  Q.
|--------------------------------------------|-----------17------------|
|-12-------15p12----12-----------------------|-0-20b22------17-20b23---|
|----15p14-------15----15p14-12b12.5==(12)r/-|-------------------------|
|--------------------------------------------|-------------------------|
|--------------------------------------------|-------------------------|
|--------------------------------------------|-------------------------|


             ~~~~~~~~~~~~~                    ~~~~~
   E  E     +E       +E    E  E     +E       +E
|-17----------------------17----------------------|
|----20b23r(20)b22==(20)r----20b23r(20)b23==(20)r-|
|-------------------------------------------------|
|-------------------------------------------------|
|-------------------------------------------------|
|-------------------------------------------------|


   E  E     E  E     E  E     E  E       E  E      +E   +E   E  +E   a a a   E  E
|-17-------17-------17-------17-------|-17----------------------------------------|
|----20b23----20b23----20b23----20b23-|----20b24==(20)r(20)-17-(17)\-----------17-|
|-------------------------------------|------------------------------------/18----|
|-------------------------------------|----------------------------------x--------|
|-------------------------------------|--------------------------------x----------|
|-------------------------------------|------------------------------x------------|


   E     +E   E  E      +E   +E   E  E        +E   +E   E  E      +E   +E   E  E
|-19b21r(19)-------------------------------|-----------------------------------------|
|------------15-17b19==(17)r(17)----15b17==|=(15)r(15)-------------------------------|
|--------------------------------14--------|-----------12-14b16==(14)r(14)-----------|
|------------------------------------------|-------------------------------12-14b16==|
|------------------------------------------|-----------------------------------------|
|------------------------------------------|-----------------------------------------|


   +E   +E   E  E E  E E E
|--------------------------|
|--------------------------|
|--------------------------|
|=(14)r(14)----------------|
|-----------10-12-9-10-7-9-|
|--------------------------|

              ~~~
                                  |----3----|
  E E E E Q   E.  +S     E Q.     Q    Q    Q
|----------------------|--------------------------|
|----------------------|--------------------------|
|----------------------|---9b12---9b12-9b12-9b12==|
|----------------------|--------------------------|
|-5-7-4-5-2s=10--(10)\-|--------------------------|
|----------------------|-x------------------------|


   |--3---|
  +E  +E  E Q  +E   E  E  E        +Q     E  E      +E    E  E     +S   S
|---------------------12--------|--------15--------------15---------------|
|------------------------17b19==|=(17)r-----17b19==(17)r----15b17r(15)p12-|
|-(9)r(9)p7-9--(9)s14-----------|-----------------------------------------|
|-------------------------------|-----------------------------------------|
|-------------------------------|-----------------------------------------|
|-------------------------------|-----------------------------------------|


         ~~~~~~~~          TPTPTPTPTPTPTP TPTPTP
                           |-3-| |-3-|    |-3-|
   E  E  Q   +E   E  Q     E E E E E E Q  E E E
|------------------------|----------------------|
|----12------------------|----------------------|
|-14----12--(12)---------|----------------------|
|------------------------|----------------------|
|-----------------x--x\--|-------5-5-5-5--7-7-7-|
|----------------15-15\--|-7-7-7----------------|


  TPTPTPTPTPTPTPTPTPTPTPTP  TPTPTPTPTPTPTPTPTPTPTPTP
  |-3-| |-3-| |-3-| |-3-|   |-3-| |-3-| |-3-| |-3-|
  E E E E E E E E E E E E   E E E E E E E E E E E E
|-------------------------|--------------------------|
|-------------------------|--------------------------|
|-------------------------|-------------6-6-6-7-7-7--|
|-------------6-6-6-7-7-7-|-8-8-8-9-9-9--------------|
|-8-8-8-9-9-9-------------|--------------------------|
|-------------------------|--------------------------|


  TPTPTPTPTPTP       ~~~~                          ~~~~
  |-3-| |-3-|
  E E E E E E E     +Q.      E  Q       +E   +E   +Q    +E
|--------------------------|----------------------------------|
|--------------------------|----------------------------------|
|-8-8-8-9-9-9-9b12==(9)r---|---11b14===(11)-(11)-(11)--(11)r\-|
|--------------------------|-x--------------------------------|
|--------------------------|-x--------------------------------|
|--------------------------|----------------------------------|


  E E E E E      +E    Q     E E E E Q  E E   Q  E E H
|--------------------------|----------------|-------------||
|-7------------------------|----------------|-------------||
|---7---9-7b7.5==(7)r------|----------------|-------------||
|-----9--------------------|-4-4---4----4---|----4--------||
|----------------------x\--|-2-2---2----2---|----2--------||
|---------------------10\--|----------------|-------------||


  E E E E E E E E   E E E E E E E E   E E E E E E E E   E E E E E E E E
|-x-x-x-x-x-x-x-x-|-x-x-x-x-x-x-x-x-|-x-x-x-x-x-x-x-x-|-x-x-x-x-x-x-x-x-|
|-x-x-x-x-x-x-x-x-|-x-x-x-x-x-x-x-x-|-x-x-x-x-x-x-x-x-|-x-x-x-x-x-x-x-x-|
|-x-x-x-x-x-x-x-x-|-x-x-x-x-x-x-x-x-|-x-x-x-x-x-x-x-x-|-x-x-x-x-x-x-x-x-|
|-x-x-x-x-x-x-x-x-|-x-x-x-x-x-x-x-x-|-x-x-x-x-x-x-x-x-|-x-x-x-x-x-x-x-x-|
|-x-x-x-x-x-x-x-x-|-x-x-x-x-x-x-x-x-|-x-x-x-x-x-x-x-x-|-x-x-x-x-x-x-x-x-|
|-x-x-x-x-x-x-x-x-|-x-x-x-x-x-x-x-x-|-x-x-x-x-x-x-x-x-|-x-x-x-x-x-x-x-x-|
as intro

  E E E E E E E E   E E E E E E E E
|-x-x-x-x-x-x-x-x-|-x-x-x-x-x-x-x-x-|
|-x-x-x-x-x-x-x-x-|-x-x-x-x-x-x-x-x-|
|-x-x-x-x-x-x-x-x-|-x-x-x-x-x-x-x-x-|
|-x-x-x-x-x-x-x-x-|-x-x-x-x-x-x-x-x-|
|-x-x-x-x-x-x-x-x-|-x-x-x-x-x-x-x-x-|
|-x-x-x-x-x-x-x-x-|-x-x-x-x-x-x-x-x-|


  |-3-| |-3-| |-3-| |-3-|   |-3-| |-3-| |-3-| |-3--|
  E E E E E E E E E E E E   E E E E E E E E E E E +E
|-x-x-x-x-x-x-x-x-x-x-x-x-|-x-x-x-x-x-x-x-x-x-x---------||
|-x-x-x-x-x-x-x-x-x-x-x-x-|-x-x-x-x-x-x-x-x-x-x---------||
|-x-x-x-x-x-x-x-x-x-x-x-x-|-x-x-x-x-x-x-x-x-x-x---------||
|-x-x-x-x-x-x-x-x-x-x-x-x-|-x-x-x-x-x-x-x-x-x-x---------||
|-x-x-x-x-x-x-x-x-x-x-x-x-|-x-x-x-x-x-x-x-x-x-x---------||
|-x-x-x-x-x-x-x-x-x-x-x-x-|-x-x-x-x-x-x-x-x-x-x-7-(7)\--||


 Pre-Verse
               ~~~~~~~~~
   Q  E  E E E Q    +Q   Q  Q  Q
|-----------------|---------------|
|-----------------|---------------|
|-----------------|---------4--7--|
|-----------------|---------4--7--|
|-----7-10---7-9--|-(9)--x--2--5--|
|-\0--------------|------0--------|


                        ~~
  Q  E  E E E E. +S     E   E    E   E  E  E   E   E
|--------------------|---------<12>-------------------|
|--------------------|------------------x-<7>-----<5>-|
|--------------------|----<12>------<7>-------<5>-----|
|--------------------|--------------------------------|
|----7-10---7-9--(9)s|=12-----------------------------|
|-0------------------|--------------------------------|


              ~~~~~~~~~
  Q  E  E E E Q    +Q   S S E Q  Q
|----------------|------------------|
|----------------|------------------|
|----------------|------------4--7--|
|----------------|------x-x-x-4--7--|
|----7-10---7-9--|-(9)--2-2-2-2--5--|
|-0--------------|------0-0-0-------|


                              \1.5______/
                        ~~
  Q  E  E E E E. +S     E S S H        +E  +E
|--------------------|---------------------------||
|--------------------|---------------------------||
|--------------------|--------0--------(0)-(0)---||
|--------------------|------0--------------------||
|----7-10---7-9--(9)s|=19------------------------||
|-0------------------|---------------------------||


 Verse 3
          PM----------|                  PM--------------|
  H.      E E   E E E E E E E E   +H     E E E E   E E E E E E E E
|-------------|-----------------|----------------|-----------------|
|-3-----------|---------------3-|-(3)------------|-----------------|
|-2-----------|---------------2-|-(2)------------|-----------------|
|-0-------0-0-|-0-0-0-0-------0-|-(0)----0-0-0-0-|-0-0-0-0---------|
|-------------|---------3p2-0---|----------------|---------3p2p0---|
|-------------|-----------------|----------------|---------------0-|


                ~~~~~~~~~
  +Q   E  E E E Q    +Q   S S E Q  Q
|------------------|------------------|
|------------------|------------------|
|------------------|------------4--7--|
|------------------|------2-2-2-4--7--|
|------7-10---7-9--|-(9)--2-2-2-2--5--|
|-(0)--------------|------0-0-0-------|


              \3.5______________/       \1
  Q  E  E E E E     +S  S   a a E +Q   +S  +S   E  E Q
|-------------------------|------------------------------|
|-------------------------|------------------------------|
|-------------------------|-----9-(9)--(9)-(9)-----------|
|-------------------------|---x----------------10-10-x---|
|----7-10---7-9-----(9)---|-x------------------10-10-x---|
|-0-----------------------|---------------------8--8-0---|


             PM----------|                       PM------|
  H    +E  E E E   E E E E E E E E   +H     Q  E E   E E E E E E E E
|----------------|-----------------|---------------|-----------------|
|----------------|---------------3-|-(3)-----------|-----------------|
|-7----(7)-------|-x-x-x-x-------2-|-(2)-----------|-2-2-2-----------|
|-7----(7)-------|-7-7-7-7-------0-|-(0)----0--x-0-|-0-0-0-0---------|
|-5----(5)-5-5-5-|-5-5-5-5-3p2-0---|---------------|---------3p2p0---|
|----------------|-----------------|---------------|---------------0-|


                ~~~~~~~~~
  +Q   E  E E E Q    +Q   S S E Q  Q    Q  E  E E E Q
|------------------|------------------|----------------|
|------------------|------------------|----------------|
|------------------|------------4--7--|----------------|
|------------------|------2-2-2-4--7--|----------------|
|------7-10---7-9--|-(9)--2-2-2-2--5--|----7-10---7-9--|
|-(0)--------------|------0-0-0-------|-0--------------|


             \1.5_____/    \1.5/   \1.5/   \1.5/   \1.5/
  +E  a a a  Q       +E   +E      +E      +E      +E
|--------------------------------------------------------||
|--------------------------------------------------------||
|-----------12------(12)-(12)----(12)----(12)----(12)----||
|---------x----------------------------------------------||
|-(9)---x------------------------------------------------||
|-----x--------------------------------------------------||


 Outro
  W          +H.      S S E   Q  H.        +H.      S S E
|-0--------|-(0)------------|----0-------|-(0)--------------|
|-0--------|-(0)------------|----0-------|-(0)--------------|
|-9--------|-(9)------7-7-7-|-7----------|----------6-6-6---|
|-9--------|-(9)------7-7-7-|-7----------|----------7-7-7---|
|-7--------|-(7)------5-5-5-|-5----------|----------4-4-4---|
|----------|----------------|------------|--------------0---|


  Q  H.        +H..        E   +W
|----0-------|-(0)--------!0-|-(0)----|
|----0-------|-(0)--------!0-|-(0)----|
|-6----------|------------!5-|-(5)----|
|-7----------|------------!7-|-(7)----|
|-4----------|------------!3-|-(3)----|
|-0----------|------------!0-|-(0)----|


  E E E E Q  Q     E E E E Q  E E   Q  E E H
|-x-x-x-x--------|----------------|-------------||
|-x-x-x-x--------|----------------|-------------||
|-x-x-x-x--------|----------------|-------------||
|-x-x-x-x--------|-4-4---4----4---|----4--------||
|-x-x-x-x-xS=x\--|-2-2---2----2---|----2--------||
|-x-x-x-x-xS=x\--|----------------|-------------||


 Free Time
                                \2______/
  W          +W           +Q   +H      +Q
|----------:------------:-------------------:
|----------:------------:-------------------:
|----------:------------:-------------------:
|-3--------:-(3)--------:-(3)--(3)-----(3)--:
|-3--------:-(3)--------:-(3)---------------:
|-1--------:-(1)--------:-(1)---------------:
                          +W


        \2____/           \2______/
  +Q   +Q    +Q   +Q     +H      +Q   +Q
|----------------------:-------------------:
|----------------------:-------------------:
|----------------------:-------------------:
|-(3)--(3)---(3)--(3)--:-(3)-----(3)--(3)--:
|-(3)------------------:-(3)---------------:
|-(1)------------------:-(1)---------------:
  +W                     +W


            ~~~~~~~~~~
  +H.      +Q     +Q   E. +S   H
|---------------|-------------------*|
|---------------|-------------------*|
|---------------|-------------------*|
|-(3)------(3)--|-(3)--2--(2)/------*|
|-(3)-----------|-(3)--2--(2)/------*|
|-(1)-----------|-(1)--0------------*|



8. Feel Your Love Tonight


Gtr I (Eb Ab Db Gb Bb Eb) - 'Edward Van Halen - Rhythm w/dist'
Gtr II (Eb Ab Db Gb Bb Eb) - 'Edward Van Halen - Lead w/dist, echo & flanger'

Intro
  Q=135
 4/4
  Gtr I
          ~~~~~~~~PM  PM  PM|   ~~~~~~~~PM  PM        ~
  E E E a E   +E  E E E E E E a E   +E  E E E E E E a E
|-----------|---------------------|---------------------|
|-----------|---------------------|---------------------|
|-----------|---------------------|---------------------|
|-----------|-----------------3s4-|-(4)-----------------|
|-------5s7-|-(7)---5---4-----4s5-|-(5)---4---2-----5s7-|
|---3-4-----|-----0---0---0-0-----|-----0---0---3-4-----|


   ~~~PM  PM  PM|   ~~~~~~~~PM  PM        ~~~~~~~~PM  PM  PM|   ~
  +E  E E E E E E a E   +E  E E E E E E a E   +E  E E E E E E a E
|---------------------|---------------------|---------------------|
|---------------------|---------------------|---------------------|
|---------------------|---------------------|---------------------|
|-----------------3s4-|-(4)-------------4s6-|-(6)---4---2-----3s4-|
|-(7)---5---4-----4s5-|-(5)---4---2-----5s7-|-(7)---5---4-----4s5-|
|-----0---0---0-0-----|-----0---0---3-4-----|-----0---0---0-0-----|


   ~~~PM  PM          ~~~~~~~~PM  PM  PM|   ~~~~~~~~PM  PM
  +E  E E E  E  E E a E   +E  E E E E E E a E   +E  E E E  E  E E E
|-----------------------|---------------------|---------------------||
|-----------------------|---------------------|---------------------||
|-----------------------|---------------------|-------------------2-||
|-(4)---2---(2)-----4s6-|-(6)---4---2-----3s4-|-(4)---2---(2)-----2-||
|-(5)---4----2------5s7-|-(7)---5---4-----4s5-|-(5)---4----2------0-||
|-----0---0-----3h4-----|-----0---0---0-0-----|-----0---0-----3-4---||


 Verse 1
                                                                ~
  +H..       E   +H     e E E E   +H.      E E   +H     E E E a E
|--------------|----------------|--------------|------------------|
|------------3-|-(3)----x-------|------------3-|-(3)----3---------|
|-(2)--------2-|-(2)----x-----2-|-(2)--------2-|-(2)----2---------|
|-(2)--------4-|-(4)----x-----2-|-(2)--------4-|-(4)----4---------|
|-(0)--------0-|-(0)----x-----0-|-(0)------x-0-|-(0)----0-----5s7-|
|--------------|----------3-4---|----------x---|----------3-4-----|


   ~~~PM  PM  PM|   ~~~~~~~~PM  PM        ~~~
  +E  E E E E E E a E   +E  E E E E E E a E
|---------------------|---------------------|
|---------------------|---------------------|
|---------------------|---------------------|
|-----------------3s4-|-(4)-----------------|
|-(7)---5---4-----4s5-|-(5)---4---2-----5s7-|
|-----0---0---0-0-----|-----0---0---3-4-----|


 ~~~~~PM  PM  PM|   ~~~~~~~~PM  PM
  +E  E E E E E E a E   +E  E E E E E E E
|---------------------|-------------------|
|---------------------|-------------------|
|---------------------|-----------------2-|
|-----------------3s4-|-(4)-------------2-|
|-(7)---5---4-----4s5-|-(5)---4---2-----0-|
|-----0---0---0-0-----|-----0---0---3-4---|


                                                                       ~
  +H.      E E   +H     +E  E E E   +Q    H     E E   +H     +E  E E a E
|--------------|------------------|-----------------|--------------------|
|------------3-|-(3)----(3)-------|---------------3-|-(3)----(3)---------|
|-(2)--------2-|-(2)----(2)-----2-|-(2)--(2)----x-2-|-(2)----(2)---------|
|-(2)--------4-|-(4)----(4)-----2-|-(2)---2-----x-4-|-(4)----(4)---------|
|-(0)------x-0-|-(0)----(0)-----0-|-(0)---0-----x-0-|-(0)----(0)-----5s7-|
|----------x---|------------3-4---|-----------------|------------3-4-----|


   ~~~PM  PM  PM|   ~~~~~~~~PM  PM        ~~~
  +E  E E E E E E a E   +E  E E E E E E a E
|---------------------|---------------------|
|---------------------|---------------------|
|---------------------|---------------------|
|---------------------|-----------------4s6-|
|-(7)---5---4-----4s5-|-(5)---4---2-----5s7-|
|-----0---0---0-0-----|-----0---0---3-4-----|


 ~~~~~PM  PM  PM|   ~~~~~~~~PM  PM
  +E  E E E E E E a E   +E  E E E E E E E
|---------------------|-------------------|
|---------------------|-------------------|
|---------------------|-----------------5-|
|-(6)---4---2-----3s4-|-(4)---2---2-----5-|
|-(7)---5---4-----4s5-|-(5)---4---2-----3-|
|-----0---0---0-0-----|-----0---0---3-4---|


                                   PM--|
  +E   E  E E E E E  E    +Q   E E E E E E
|-----------------------|------------------|
|---------5-5-7-5-------|------------------|
|-(5)-----5-5-5-5----5--|-(5)------------4-|
|-(5)-----5-5-5-5----5--|-(5)--x-x-------4-|
|-(3)-(3)---------3-(3)-|-(3)--x-x-4-4-4-2-|
|-----------------------|------x-x-2-2-2---|


       T               ~~            ~
  +Q   Q   E.S a Q     H    E  E E a E
|-------------------|-------------------||
|-------------------|-------------------||
|-(4)---------------|-------------------||
|-(4)--9s==xsx------|-------------------||
|-(2)--9s=14sxp4s9s=|=14-----------5s7--||
|-------------------|-------x\-3-4------||


 Chorus
   ~~~PM  PM  PM|   ~~~~~~~~PM  PM
  +E  E E E E E E a E   +E  E E E E E E   E
|---------------------|------------------------|
|---------------------|------------------------|
|---------------------|------------------12b13-|
|---------------------|------------------------|
|-(7)---5---4-----3s5-|-(5)---4---2---x/-------|
|-----0---0---0-0-----|-----0---0---3-4/-------|


                                                                  ~~
                                              |---3---|  |-3--|
  E  S S  E     S S  S S  S    S  S S  S S    E    E  E  E  E E S E. +E   E
|-9----------------------------------------|---------------------------------||
|---12p9-------14p9-12p9-------9-14p9-12p9-|-------9-------------------------||
|--------12b13-----------12b13-------------|-12b13---12-11-10-9---9--(9)\-2--||
|------------------------------------------|------------------------------2--||
|------------------------------------------|------------------------------0--||
|------------------------------------------|---------------------------------||


 Verse 2
                                           PM--|         PM           ~
  +H.      E E   +H     E E E E   +H     a E E E E   +E  E Q  E E e a E
|--------------|----------------|------------------|---------------------|
|------------3-|-(3)------5p3---|----------------3-|-(3)-----------------|
|-(2)--------2-|-(2)----------2-|-(2)------------2-|-(2)-----------------|
|-(2)------x-4-|-(4)----x-5s4-2-|-(2)--------2-4-4-|-(4)---6--4-2--------|
|-(0)------x-0-|-(0)----x-----0-|-(0)----2s4-----0-|-(0)-0----------5s7--|
|----------x---|--------x-------|------------------|--------------0------|


   ~~~PM  PM  PM|   ~~~~~~~~PM  PM        ~~~
  +E  E E E E E E a E   +E  E E E E E E a E
|---------------------|---------------------|
|---------------------|---------------------|
|---------------------|---------------------|
|-----------------3s4-|-(4)-------------4s6-|
|-(7)---5---4-----4s5-|-(5)---4---2-----5s7-|
|-----0---0---0-0-----|-----0---0---3-4-----|


 ~~~~~PM  PM  PM    ~~~~~~~~PM  PM
  +E  E E E E E E a E   +E  E E E  E  E E E
|---------------------|---------------------|
|---------------------|---------------------|
|---------------------|-------------------2-|
|-(6)---4---2-----3s4-|-(4)---2---(2)-----2-|
|-(7)---5---4-----4s5-|-(5)---4----2------0-|
|-----0---0---0-0-----|-----0---0-----3-4---|


                                               PM|         PM           ~
  +H.      E E   +H     S S E E E   +H     a E E E E   +E  E Q  E E e a E
|--------------|------------------|------------------|--------------------|
|------------3-|-(3)--------5p3-2-|-(2)------------3-|-(3)----------------|
|-(2)--------2-|-(2)----x-x-----2-|-(2)------------2-|-(2)----------------|
|-(2)------x-4-|-(4)----x-x-5s4-2-|-(2)--------2-4-4-|-(4)---6--4-2-------|
|-(0)------x-0-|-(0)----x-x-0---0-|-(0)----2s4-----0-|-(0)-0----------5s7-|
|----------x---|------------------|------------------|--------------0-----|
 
 
   ~~~PM  PM  PM|   ~~~~~~~~PM  PM        ~~~
  +E  E E E E E E a E   +E  E E E E E E a E
|---------------------|---------------------|
|---------------------|---------------------|
|---------------------|---------------------|
|-----------------3s4-|-(4)-------------4s6-|
|-(7)---5---4-----4s5-|-(5)---4---2-----5s7-|
|-----0---0---0-0-----|-----0---0---3-4-----|


 ~~~~~PM  PM  PM    ~~~~~~~~PM  PM
  +E  E E E E E E a E   +E  E E E E E E E
|---------------------|-------------------|
|---------------------|-------------------|
|---------------------|-----------------5-|
|-(6)---4---2-----3s4-|-(4)---2---2-----5-|
|-(7)---5---4-----4s5-|-(5)---4---2-----3-|
|-----0---0---0-0-----|-----0---0---3-4---|


                                 PM--|
  +E  E E E E E E  E    +Q   E E E E E E
|---------------------|------------------|
|-------7---7-5----5--|-(5)--x-x---------|
|-(5)---5---5-5----5--|-(5)--x-x-------4-|
|-(5)---5---5-5----5--|-(5)--x-x-------4-|
|-(3)-x---------3-(3)-|-(3)--x-x-4-4-4-2-|
|---------------------|----------2-2-2---|


         T
   H     a  Q.    E    H      Q    E E
|-------------------|------------------||
|-------------------|------------------||
|-(4)---------------|-(4)----(4)-------||
|-(4)---------------|-(4)----(4)-----9-||
|-(2)---------------|-(2)----(2)-----7-||
|--------7s14----14s|=19-----------0---||
  +W                  +H     +E  E Q
	
	
 Chorus
      PM  PM  PM|         PM  PM    PM
  +E  E E E E E E E   +E  E E E E E E E
|-------------------|-------------------|
|-------------------|-------------------|
|-------------------|-------------------|
|-(9)---7---7-----7-|-(7)---7---7s9---9-|
|-(7)---4---5-----5-|-(5)---4---5s7---7-|
|-----0---0---0-0---|-----0---0-----0---|
|-Rhy Fig 1               end Rhy Fig 1-|

Rhy Fig 1 x2


      PM  PM  PM|         PM
  +E  E E E E E E E   +E  E E S S E E  E   E
|-------------------|------------------------||
|-------------------|------------------------||
|-------------------|----------------------2-||
|-(9)---7---7-----7-|-(7)---7-x-x-7s9-(9)\-2-||
|-(7)---4---5-----5-|-(5)---4-x-x-5s7-(7)\-0-||
|-----0---0---0-0---|-----0---x-x------0-----||


 Verse 3
                                           PM--|                    PM  ~
  +H.      E E   +H     E E E E   +H     a E E E E   +E  E Q   E  E E a E
|--------------|----------------|------------------|-----------------------|
|------------3-|-(3)------5p3---|----------------3-|-(3)-------------------|
|-(2)--------2-|-(2)----------2-|-(2)------------2-|-(2)---1--(2)----------|
|-(2)------x-4-|-(4)----x-5s4-2-|-(2)--------2-4-4-|-(4)---2---4--2--------|
|-(0)------x-0-|-(0)----x-----0-|-(0)----2s4-----0-|-(0)-x------------5s7--|
|----------x---|--------x-------|------------------|----------------0------|
 
 
      PM  PM  PM|   ~~~~~~~~PM  PM        ~~~
  +E  E E E E E E a E   +E  E E E E E E a E
|---------------------|---------------------|
|---------------------|---------------------|
|---------------------|---------------------|
|---------------------|-----------------4s6-|
|-(7)---5---4-----3s5-|-(5)---4---2-----5s7-|
|-----0---0---0-0-----|-----0---0---3-4-----|


 ~~~~~PM  PM                                           ~~~
  +E  E E E E S S E a a a E       +E  +E  +E      +E  +Q    E   E
|-------------------------------|----------------------------------|
|-------------------------------|----------------------------------|
|-------------------------9b10==|=(9)-(9)r(9)b12==(9)r(9)--(9)\-2--|
|-(6)-------------------x-x-----|-(x)-----------------------x\--2--|
|-(7)---5---4-x-x-----x---------|-------------------------------0--|
|-----0---0---0-0-0-x-----------|----------------------------------|


  +H     +S  S E +S  S E   +H     E E E E
|------------------------|----------------|
|--------------2-(2)---3-|-(3)------5p3---|
|-(2)----(2)---2-(2)---2-|-(2)----------2-|
|-(2)----(2)---2-(2)---4-|-(4)----x-5s4-2-|
|-(0)----(0)-----------0-|-(0)----x-0---0-|
|------------------------|--------x-------|


           PM--|                    PM  ~
   H     a E E E E   +E   E  Q  E E E a E
|------------------|-----------------------|
|----------------3-|-(3)-------------------|
|-(2)------------2-|-(2)-----1-------------|
|--2---------2-4-4-|-(4)-----2--4-2--------|
|--0-----2s4-----0-|-(0)-(0)----------5s7--|
|------------------|----------------0------|


   ~~~PM  PM  PM|   ~~~~~~~~    PM        ~~~
  +E  E E E E E E a E   +E  E E E E E E a E
|---------------------|---------------------|
|---------------------|---------------------|
|---------------------|---------------------|
|---------------------|---------------------|
|-(7)---5---4-----3s5-|-(5)---4---2-----5s7-|
|-----0---0---0-0-----|-----0---0---3-4-----|


 ~~~~~PM  PM  PM|   ~~~~~~~~    PM
  +E  E E E E E E a E   +E  E E E E E E E
|---------------------|--------------------|
|---------------------|--------------------|
|---------------------|--------------------|
|---------------------|--------------------|
|-(7)---5---4-----3s5-|-(5)---4---2-----2S=|
|-----0---0---0-0-----|-----0---0---3-4----|


                                                                    PM
  E E E E E E E E   +Q   E E E E E E   +H.      +Q     +H     +Q    E E
|-----------------|------------------|---------------|-------------------||
|-----7---7-7---5-|-(5)--5-5---------|---------------|-------------------||
|-x-5-5---5-5---5-|-(5)--5-5-------4-|-(4)------(4)--|-(4)----(4)/-------||
|-5-5-5-x-5-5---5-|-(5)--5-5-------4-|-(4)------(4)--|-(4)----(4)/----9--||
|-3-3---3-3-3-3---|------3-3-4-4-4-2-|-(2)------(2)--|-(2)----(2)/----7--||
|-------x-----x---|----------2-2-2---|---------------|--------------0----||
 
 
   Chorus
   Rhy Fig 1 x3

  Gtr II
   W                   H          E E E  S  S
|-------------------|-----------------------------||
|-------------------|-------------------12--------||
|-------------------|----------------------14b16==||
|-------------------|-------------7s9s7-----------||
|-------------------|-------------5s7s5-----------||
|-------------------|-----------------------------||
|
| Gtr I
|     PM  PM  PM|         PM
| +E  E E E E E E E   +E  E E S S E E E  E
|-------------------|-----------------------------||
|-------------------|-----------------------------||
|-------------------|--------------------2--------||
|-(9)---7---7-----7-|-(7)---7-x-x--------2--------||
|-(7)---4---5-----5-|-(5)---4-x-x--------0--------||
|-----0---0---0-0---|-----0---x-x---3-4-----------||


 Guitar Solo
         |---3----|                                            |---3---|
   +E   +S   +S   S  E     S  S      +S    S  E     S  S      +S    S  S
|---------------------------------------------------------------------12-|
|-------------------------12--------------15-------15--------------12----|
|-(14)-(14)r(14)p12-14b16----14b16==(14)r----14b16--x-14b16==(14)r-------|
|------------------------------------------------------------------------|
|------------------------------------------------------------------------|
|------------------------------------------------------------------------|
|
|  +H.                                              E          E
|------------------------------------------------------------------------|
|--------------------------------------------------------------3---------|
|--(2)----------------------------------------------x----------2---------|
|--(2)----------------------------------------------x----------4---------|
|--(0)----------------------------------------------x----------0---------|
|------------------------------------------------------------------------|
 
 
   E     S  S  S  S  S  S  S  S  E  E    E        +E    S  S  E      +E    S  S  E      +E    S  S
|-------12------------------------------17b19==|=(17)r-17-18-17b19==(17)r-17-18-17b19==(17)r-17-17-|
|-15b17----12-15p12----12----------------------|---------------------------------------------------|
|-------------------15----15s14-12--x----------|---------------------------------------------------|
|----------------------------------------------|---------------------------------------------------|
|----------------------------------------------|---------------------------------------------------|
|----------------------------------------------|---------------------------------------------------|
|
|                                                       PM                       PM----|
| +H.                              +E    E        +E    E     Q            E     E       E    E
|----------------------------------------------|---------------------------------------------------|
|-(3)------------------------------(3)/--------|---------------------------------------------------|
|-(2)------------------------------(2)/--------|---------------------------------------------------|
|-(4)------------------------------(4)/--7-----|--(7)---------9------------7------------------7----|
|-(0)------------------------------(0)---5-----|--(5)---------5------------5------------------5----|
|----------------------------------------------|--------0------------------------0-------0---------|
   
	 
	                             ~~
   E      +E   +S   +S   S  S  E  +E   S S  S  S
|-18b22==(18)-(18)r(18)------------------0-------|
|-----------------------17h20-17-(17)\-----12h14-|
|------------------------------------------------|
|------------------------------------------------|
|------------------------------------------------|
|------------------------------------------------|
|
|          PM
| +E       E    Q              E   E   E    E
|------------------------------------------------|
|------------------------------------------------|
|-------------------------------------------2----|
|-(7)-----------9--------------7------------2----|
|-(5)-----------5--------------5------------0----|
|----------0-----------------------3---4---------|


                                           PM|                              ~~
                                  |--3--|                |--3---|                      |--3---|
   S   S  S  S  S  S  S  S  S  S  S  S  S  S  S  S  S    S   S  S  S  S  a  Q  E  E    E  E   E
|-----------------------------------------------------|--------------------------------9--------|
|-----------------------------------------------------|------------------------0---------12---9-|
|-14--12p11----12p11----11----------------------------|------------------------0-11b13----------|
|-----------14-------14----12-14-11h12p11----11-------|-----------------------------------------|
|-----------------------------------------14----12-14-|-11h=12p11----11-11s14-------------------|
|-----------------------------------------------------|-----------14----------------------------|
|
| +H.                                      E     E      +H                     E  E    E    E
|-----------------------------------------------------|-----------------------------------------|
|------------------------------------------------3----|-(3)--------------------4----------------|
|-(2)--------------------------------------x-----2----|-(2)--------------------3------------6---|
|-(2)--------------------------------------x-----4----|-(4)--------------------1------------6---|
|-(0)--------------------------------------x-----0----|-(0)---------------------------------4---|
|-----------------------------------------------------|---------------------------4----4--------|
 
 
   |---3---| |---3---|         |------6-------|
   E    E  E E  E    E  Q      S    S S  S S  S
|-------9------------9----------------9---------|
|---------12-9---------12b14--------9---12p9----|
|-11b13--------11b13----------11b12----------11-|
|-----------------------------------------------|
|-----------------------------------------------|
|-----------------------------------------------|
|
| +W
|-----------------------------------------------|
|-----------------------------------------------|
|-(6)-------------------------------------------|
|-(6)-------------------------------------------|
|-(4)-------------------------------------------|
|-----------------------------------------------|


                                                            TP    TP TP TP TP   TP   TP   TP
   |------6------| |---3---|                                               |------3-------|
   S   S  S S S  S S  S    S  S  S E +S  S   E     E        E.    S  E  E  Q    Q    E    E
|-------------9-----------------------------12----12-----|-12----14-14-15S17S==19S==22---22--|
|--9--------9---12p9-------9----------------15b17-15b17==|=15r-------------------------------|
|-----12p11----------11b12---12s11-9-(9)sx\--------------|-----------------------------------|
|--------------------------------------------------------|-----------------------------------|
|--------------------------------------------------------|-----------------------------------|
|--------------------------------------------------------|-----------------------------------|
|
|                                                              PM            PM---|
| +Q.                         E    E  E      E     E       +E  E     Q     E E    E    E
|--------------------------------------------------------|-----------------------------------|
|--------------------------------------------------------|-----------------------------------|
|-(6)-------------------------x----6--5------4-----------|-----------------------------------|
|-(6)-------------------------x----6--5------4-----2-----|-(2)-------4-----2-----------2-----|
|-(4)-------------------------x----4--3------2-----0-----|-(0)-0-----0-----0-0----0----0-----|
|--------------------------------------------------------|-----------------------------------|
 
 
                                  |--3--|              |-----3-----|
   S     +S       +S   +S    S S  S  S  S      +Q     +S   S  E    E
|-22b24r(22)b24==(22)-(22)r\--------12-15b19==(15)---(15)r-x-12------|
|------------------------------0-12-------------------------------12-|
|--------------------------------------------------------------------|
|--------------------------------------------------------------------|
|--------------------------------------------------------------------|
|--------------------------------------------------------------------|
|
|                  PM                                  PM
| +E               E         E    E             E  E   E        E
|--------------------------------------------------------------------|
|--------------------------------------------------------------------|
|--------------------------------------------------------------------|
|-(2)------------------------4------------------2--2------------2----|
|-(0)--------------0---------0----x-------------0--0---0--------0----|
|--------------------------------------------------------------------|


              ~~~~~
   E      E  +S    E    S  S  S  S  S  S  S  S  S    S   S  S  S  S  S  E      Q   S S  E
|-------------------------------------------------|-------------------------------------------|
|-15b17==15-(15)r-17---12-------12----15p12-------|-12-----15p12----12------------------6b8===|
|-------------------------15-16----15-------16-16-|-----15-------14----12b12.5----------------|
|-------------------------------------------------|----------------------------xs==xsx/-------|
|-------------------------------------------------|-------------------------------------------|
|-------------------------------------------------|-------------------------------------------|
|
| +E      E   E      E     E     E     E     E      +E      E     E     E      Q   E    E
|-------------------------------------------------|-------------------------------------------|
|-------------------------------------------------|-------------------------------------------|
|-------------------------------------------------|-------------------------------------5-----|
|-(2)-----2---4------------2-----x-----x-----2----|-(2)-----7-----9-----7------7\--x----5-----|
|-(0)-----0---0------0-----0-----x-----x-----0----|-(0)-----5-----5-----5------5\--x----3-----|
|-------------------------------------------------|-------------------------------------------|
 
 
             ~~~~~~                         ~~~~~~
  +E   E S S E +Q   S  S E       +E   E S S E +E  T  S. E   E
|------------------------------|------------------------------|
|-(6)r-6-5---------------8b10==|=(8)r-8-7---------------------|
|----------5-----------0-------|----------7-----------------4-|
|------------5-(5)--x----------|------------7-(7)-----------4-|
|------------------------------|------------------x--xs=x\--2-|
|------------------------------|--------------------10s=x\----|
|
| +H.               E    E       +H.                   +E   E
|------------------------------|------------------------------|
|------------------------------|------------------------------|
|-(5)---------------x/---7-----|-(7)-------------------(x)\-4-|
|-(5)---------------x/---7-----|-(7)-------------------(x)\-4-|
|-(3)---------------x/---5-----|-(5)-------------------(x)\-2-|
|------------------------------|------------------------------|


  +W                         +H      +Q.    E
|--------------------------|-------------------||
|--------------------------|-------------------||
|-(4)----------------------|-(4)----([4])------||
|-(4)----------------------|-(4)----([4])---2--||
|-(2)----------------------|-(2)----([2])---2--||
|--------------------------|----------------0--||
|
|        T
|  Q   E E  E  +E   E  +E     H      +Q.    E
|--------------------------|-------------------||
|--------------------------|-------------------||
|-(4)----------------------|-(4)-----(4)-------||
|-(4)----------------------|-(4)-----(4)----2--||
|-(2)----------------------|-(2)-----(2)----2--||
|--------7s11-(11)s14-(14)s|=19-------------0--||
  +W
	
	
 Chorus
  Gtr I
                                   PM  PM  PM|
  Wx3          H    Q  E E     +E  E E E E E E E
|------------|-------------||--------------------|
|------------|-------------||o-------------------|
|------------|-------------||--------------------|
|------------|-----------9-||--(9)---7---7-----7-|
|------------|-----------7-||o-(7)---4---5-----5-|
|------------|-------------||------0---0---0-0---|


      PM  PM    PM          PM  PM  PM|         PM  PM        ~
  +E  E E E E E E E  3x +E  E E E E E E E   +E  E E E E E E a E
|--------------------||-------------------|---------------------||
|-------------------o||-------------------|---------------------||
|--------------------||-------------------|---------------------||
|-(7)---7---7s9---9--||-(9)---7---7-----7-|-(7)---7---7---------||
|-(5)---4---5s7---7-o||-(7)---4---5-----5-|-(5)---4---5-----5s7-||
|-----0---0-----0----||-----0---0---0-0---|-----0---0---3-4-----||


 Outro
   ~~~PM  PM  PM|   ~~~~~~~~PM  PM        ~~~
  +E  E E E E E E a E   +E  E E E E E E a E
|---------------------|---------------------|
|---------------------|---------------------|
|---------------------|---------------------|
|-------4---2-----3s4-|-(4)-------------4s6-|
|-(7)---2---2-x-x-4s5-|-(5)---4---2-----5s7-|
|-----0---0---0-0-----|-----0---0---3-4-----|


 ~~~~~PM  PM  PM|   ~~~~~~~~PM  PM
  +E  E E E E E E a E   +E  E E E E E E E   Wx3
|---------------------|-------------------|--------*|
|---------------------|-------------------|--------*|
|---------------------|-------------------|--------*|
|-(6)---4---2-----3s4-|-(4)---4---2-------|--------*|
|-(7)---5---4-x-x-4s5-|-(5)---2---2-----2-|--------*|
|-----0---0---0-0-----|-----0---0---3-4-0-|--------*|



9. Little Dreamer


Gtr I (Eb Ab Db Gb Bb Eb) - 'Eddie Van Halen - Lead / Rhythm w/dist'

Intro
  Q=90
 4/4
  Gtr I
  S S e e E +S  S Q  E    S S e e E +S  S Q  E
|-----------------------|-----------------------|
|---------8-(8)---------|---------3-(3)---------|
|---------8-(8)---------|---------3-(3)---------|
|---------8-(8)---------|---------3-(3)---------|
|-----6-8---------------|-----1-3---------------|
|-8-8-----------8-8--8\-|-3-3-----------3-3--3/-|


  PM|                                             PM|
  S S e e E +S  S Q  E    S S e e E +S  S Q  E    S S e e E +S  S Q  E
|-----------------------|-----------------------|-----------------------|
|---------8-(8)---------|---------3-(3)---------|---------8-(8)---------|
|---------8-(8)---------|---------3-(3)---------|---------8-(8)---------|
|---------8-(8)---------|---------3-(3)---------|---------8-(8)---------|
|-----6-8-x-------------|-----1-3---------------|-----6-8-x-------------|
|-8-8-----8-----8-8--8\-|-3-3-----------3-3--3/-|-8-8-----8-----8-8--8\-|


                            PM|
  S S e e  E  +S  S Q  E    S S e e E +S  S Q  E    S S e e  E  +S  S Q  +E
|-------------------------|-----------------------|---------------------------||
|----------3--(3)---------|---------8-(8)---------|----------3--(3)-----------||
|----------3--(3)---------|---------8-(8)---------|----------3--(3)-----------||
|----------3--(3)---------|---------8-(8)---------|----------3--(3)-----------||
|-----1-3-----------------|-----6-8-x-------------|-----1-3-------------------||
|-3-3-----(3)-----3-3--3/-|-8-8-----8-----8-8--8\-|-3-3-----(3)-----3-3--(3)/-||


 Verse 1
  PM----------|             PM------|
  E E E E E E S E.   +E   E E E E E S E.
|------------------|---------------------|
|------------------|---------------------|
|---------------8--|-(8)\-------------3--|
|---------------8--|-(8)\-------------3--|
|-x-x-x-x-x-x------|--------x-x-x-x------|
|-8-8-8-8-8-8-8----|------x-3-3-3-3-3----|


         PM----|          PM--------|
  +E   E E E E E E +E     E E E E E E S E +S
|-----------------------|----------------------|
|-----------------------|----------------------|
|-(3)/------------------|----------------------|
|-(3)/-----------8-(8)\-|---------------3-(3)s=|
|--------x-x-x-x-8-(8)\-|-3-3-3-3-3-3-x-3-(3)s=|
|------x-6-6-6-6--------|-1-1-1-1-1-1-1-1-(1)s=|


    PM--------|             PM--------|
  E E E E E E S E.   +E   E E E E E S E.
|------------------|---------------------|
|------------------|---------------------|
|---------------8--|-(8)\-------------3--|
|-x-------------8--|-(8)\-------------3--|
|-x-x-x-x-x-x------|--------x-x-x-x------|
|-8-8-8-8-8-8-8----|------x-3-3-3-3-3----|


         PM------|          PM----|
  +E   E E E E E S E +S     E E E E E. S  Q
|-------------------------|-------------------||
|-------------------------|-------------------||
|-(3)/--------------------|-------------------||
|-(3)/-------------8-(8)\-|-------------------||
|--------x-x-x-x---8-(8)\-|-3-3-3-3-3---------||
|------x-6-6-6-6-6--------|-1-1-1-1-1--3s18\--||


 Chorus
  PM|                ~~~                        ~~~
  S S e e E +S  S E +E  E    S S e e E +S  S E +E  S S
|--------------------------|---------------------------|
|---------8-(8)------------|---------3-(3)-------------|
|---------8-(8)------------|---------3-(3)-------------|
|---------8-(8)------------|---------3-(3)-------------|
|-----6-8-x----------------|-----1-3-x-----------------|
|-8-8-----8-----8-8-(8)-8\-|-3-3-----3-----3-3-(3)-3-2-|


                               |--3---|
  S S e e E +S  S E +S   S    +S  +S  S
|----------------------------------------|
|---------1-(1)--------------------------|
|---------1-(1)----------5b7==(5)r(5)p4h=|
|---------1-(1)--------------------------|
|-------1-x------------------------------|
|-1-1-4---x-----1-1-(1)/-----------------|


      \1/                 \1/
                                                    ~        PM|             ~
              |--3---|            |--3---|
   S +S      +S  +S  S S +S      +S  +S  S S S S S  E +E     S S e e E +S  S Q  E
|----------------------------------------------------------|-----------------------|
|----------------------------------------------------------|---------8-(8)---------|
|-h5-(5)pb7==(5)r(5)p4h5-(5)pb7==(5)r(5)p4-----------------|---------8-(8)---------|
|------------------------------------------5---------------|---------8-(8)---------|
|--------------------------------------------5-4-3\-2-(2)/-|-----6-8-x-------------|
|----------------------------------------------------------|-8-8-----8-----8-8--8\-|


                  ~
                                              |---3----|
  S S e e E +S  S Q  S S   S S e e E +E  +E   E   E    E
|------------------------|-----------------------------------|
|---------3-(3)----------|---------1-(1)-(1)/----------------|
|---------3-(3)----------|---------1-(1)-(1)/-0------<12>----|
|---------3-(3)----------|---------1-(1)-(1)/---<12>---------|
|-----1-3-x--------------|-------1-x-------------------------|
|-3-3-----3-----3-3--3-2-|-1-1-4---x-------------------------|


                                                  $
                                          >
               \2.5____/    \1.5/  \1.5/  \1.5/
   S   E   S   E      +E    S      S      Q.
|-------------------------------------------------||
|-------------------------------------------------||
|-----<7>-<7>-<5>----(<5>)-<5>----<5>----<5>------||
|-<7>---------------------------------------------||
|-------------------------------------------------||
|-------------------------------------------------||


 Verse 2 + 3
  PM----------|             PM--------|
  E E E E E E S E.   +E   E E E E E S E.
|------------------|---------------------|
|------------------|---------------------|
|---------------8--|-(8)\-------------3--|
|---------------8--|-(8)\-------------3--|
|-x-x-x-x-x-x------|--------x-x-x-x------|
|-8-8-8-8-8-8-8----|------x-3-3-3-3-3----|


                                                          To Coda
       PM----------|        PM----------|          PM--------|
  +E   E E E E E S E +S     E E E E E E S E +S     E E E E E E S E.
|-------------------------|---------------------|-------------------|
|-------------------------|---------------------|-------------------|
|-(3)/--------------------|---------------------|-------------------|
|-(3)/-------------8-(8)\-|---------------3-(3)-|--------------6-6--|
|------8-8-8-8-8---8-(8)\-|-3-3-3-3-3-3-x-3-(3)-|-/6-6-6-6-6-6-6-6--|
|------6-6-6-6-6-6--------|-1-1-1-1-1-1-1-1-(1)-|-/4-4-4-4-4-4-4-4--|


                         <
  PM--------|      PM--------|
  E E E E E E Q    E E E E E E S  E.   E E E S S +Q.    E
|----------------|-------------------|-------3-------------||
|----------------|-------------------|-3---3-3-------------||
|-------------8--|-------------------|-0-0-0-2p0-(0)-------||
|-8-x-8-x-8-x-8--|-------------------|-0-0-----------------||
|-6-6-6-6-6-6-6--|-8-8-8-8-8-8-8s=x\-|-x-------------------||
|----------------|-6-6-6-6-6-6-6s15\-|-3---------------15\-||


 Chorus
  PM--|              ~~~                        ~~~
  S S e e E +S  S E +E  E    S S e e E +S  S E +E  S S
|--------------------------|---------------------------|
|---------8-(8)------------|---------3-(3)-------------|
|---------8-(8)------------|---------3-(3)-------------|
|---------8-(8)------------|---------3-(3)-------------|
|-----6-8-x----------------|-----1-3-x-----------------|
|-8-8-----8-----8-8-(8)-8\-|-3-3-----3-----3-3-(3)-3-2-|


                             |-3-|
  S S e e E +S  S E +S   a S S S S
|-----------------------------------|
|---------1-(1)---------------------|
|---------1-(1)----------0s4h5h6s7--|
|---------1-(1)---------------------|
|-------1-x-------------------------|
|-1-1-4---x-----1-1-(1)/------------|


                   \1/  |                \1/  \1/ |
               |---3----|
  S S S S     +S  +S   +S   S S S E.    +S   +E  +S
|---6-------------------------6----------------------|
|-6---8---------------------6---8--------------------|
|-------8b10==(8)-(8)--(8)r-------8b10==(8)--(8)r(8)-|
|----------------------------------------------------|
|----------------------------------------------------|
|----------------------------------------------------|


                     \1/  \1/   |
  PM--|                         PM--|
  S S e e E +S  S E +E   +E     S S e e E +S  S E E S S
|-----------------------------|--------------------------|
|---------8-(8)---------------|---------3-(3)------------|
|---------8-(8)---------------|---------3-(3)------------|
|---------8-(8)---------------|---------3-(3)------------|
|-----6-8-x-------------------|-----1-3-x----------------|
|-8-8-----8-----8-8-(8)--(8)\-|-3-3-----3-----3-3-3-3-2--|


                                                         \1.5_______/
                     |--3--|     |--3--|
  S S e E E +E  +E   E a E E   a E E a E S T T S S E    +E     +E  +E
|----------------------------|-----------------------------------------||
|---------1-(1)-(1)/---------|-----------------------------------------||
|---------1-(1)-(1)/---------|-------7s9-7h9p7s5s4-5b7==(5)----(5)r(5)-||
|---------1-(1)-(1)/-x-------|-5s7-5-----------------------------------||
|-------1-x----------0-3s5-3-|-----------------------------------------||
|-1-1-4---x------------------|-----------------------------------------||


 Guitar Solo
                          |----5----| |--------10:8---------|
   E.    S      +Q    +E  T T  T T  T T T  T T  T T T  T T  T
|-------------------------8-----------8-----------8-------------|
|-11b13-11b13==(11)r=(11)---8-11p8------8-11p8------8-11p8------|
|----------------------------------11----------11----------11---|
|---------------------------------------------------------------|
|---------------------------------------------------------------|
|---------------------------------------------------------------|


                                    \2.5/  |     \2.5________/
  |3-|  |-3-|
  Q  E  E E E E.. +T  T T E.   +E  +T     +T  E +Q      +E  +S   S  S  S  T  T
|----------------------------|----------------------------------------------10-|
|-8--------------------------|-------------------------------------------11----|
|---11-10-9-8-7---(7)p0---8--|-(8)-(8)----(8)p5-(5)-----(5)-(5)s14\-5s12-------|
|---------------------0-x----|-------------------------------------------------|
|----------------------------|-------------------------------------------------|
|----------------------------|-------------------------------------------------|


                                    ~~~~
                                        |-------3-------|
   +E.  +S      +S       +S   +E   +Q   S  E      +E   +S
|-(10)-(10)b11r(10)b11==(10)r(10)-(10)-------------------------|
|---------------------------------------8-11b13==(11)r(11)b13==|
|---------------------------------------x----------------------|
|--------------------------------------------------------------|
|--------------------------------------------------------------|
|--------------------------------------------------------------|


             |-3--|                        |--------10:8---------|
   +E.  +S   T  T T S T S T  S S  T T T  T T  T T T  T T  T T T  T
|-------------------8---9---11-9-11p9p8----8-11p9p6----8h11p9p8----|
|-(11)r(11)-------9---------------------11----------11----------11-|
|--------------10--------------------------------------------------|
|-----------11-----------------------------------------------------|
|------------------------------------------------------------------|
|------------------------------------------------------------------|


                          \1/  \1/  \1/  |
                          |----3----|
  T  T T T  T T  S S S E +S   +S   +S   +E  +S   S  a  S  S
|-8----------------------------------------------------------|
|---11p9p8----8------------------------------------------11--|
|----------10---10p9p8s7-(7)--(7)--(7)--(7)-(7)s13\-7s12-----|
|------------------------------------------------------------|
|------------------------------------------------------------|
|------------------------------------------------------------|


                          ~~~~
   E      +S       +S    +Q     Q    a  S  S  E
|---------------------------------------------------|
|-13b15==(13)b16==(13)r-(13)--(13)\-------16-18b20==|
|-------------------------------x\---xs17-----------|
|---------------------------------------------------|
|---------------------------------------------------|
|---------------------------------------------------|


                                                     D.S. al Coda
                                                       \1/   \1/   \1
            |----3-----|           |-----3-----|
   +S    S  S       S  S  +S   S  +S   S       S  E.  +S    +E    +E
|-------18-14b14.5-18-15-(15)-18-(18)-14b14.5-18-15--(15)--(15)--(15)\-||
|-(18)r----------------------------------------------------------------||
|----------------------------------------------------------------------||
|----------------------------------------------------------------------||
|----------------------------------------------------------------------||
|----------------------------------------------------------------------||


  &
                             <
  PM--------|        PM--------|
  E E E E E E S E.   E E E E E E S  E.   Q.   S S +Q.     E
|------------------|-------------------|-3-------------------||
|------------------|-------------------|-3----2p0-(0)--------||
|-------------8-8--|-------------------|-0-------------------||
|-8-x-8-x-8-x-8-8--|-------------------|-0-------------------||
|-6-6-6-6-6-6-6-6--|-8-8-8-8-8-8-8s=x\-|-x-------------------||
|------------------|-6-6-6-6-6-6-6s15\-|-3--------------/15\-||


 Chorus
                ~                       ~
  E E e e +S  S Q  E    S S e e E +S  S Q  S S   S S e e E +S  S E +S   E T T
|---------------------|------------------------|------------------------------|
|-------8-(8)---------|---------3-(3)----------|---------1-(1)----------------|
|-------8-(8)---------|---------3-(3)----------|---------1-(1)----------3h5p3-|
|-------8-(8)---------|---------3-(3)----------|---------1-(1)----------------|
|---6-8-x-------------|-----1-3-x--------------|-------1-x--------------------|
|-8-----8-----8-8--8\-|-3-3-----x-----3-3--3-2-|-1-1-4---x-----1-1-(1)/-------|


                          ~~~~~~
  S S S S S S T  T  S S S E +S   S    E
|----------------------------------------|
|----------------------------------------|
|---3------------------------------------|
|-7---5---3s2-------2------------x/------|
|-------5-----3h(5)---0-3-5-(5)-(5)/-----|
|------------------------------------13\-|


  PM--|           ~                       ~
  S S e e E +S  S Q  E    S S e e E +S  S Q  S S
|-----------------------|------------------------|
|---------8-(8)---------|---------3-(3)----------|
|---------8-(8)---------|---------3-(3)----------|
|---------8-(8)---------|---------3-(3)----------|
|-----6-8-x-------------|-----1-3-x--------------|
|-8-8-----8-----8-8--8\-|-3-3-----3-----3-3--3-2-|


  PM--|
  S S e e E +S  S E +S   E T T
|------------------------------|
|---------1-(1)----------8h9p8-|
|---------1-(1)----------------|
|---------1-(1)----------------|
|-------1-x--------------------|
|-1-1-4---x-----1-1-(1)/-------|


                      \1___/       \1/  \1/ |
                                                      PM--|           ~
   S S S  S S S E    +E   +S  +S  +S   +S  +S  +S     S S e e E +S  S Q  E
|---------------------------------------------------|-----------------------|
|----8----------------------------------------------|---------8-(8)---------|
|-10---8-10-7-8-5b7==(5)--(5)-(5)-(5)--(5)r(5)-(5)/-|---------8-(8)---------|
|---------------------------------------------------|---------8-(8)---------|
|---------------------------------------------------|-----6-8-x-------------|
|---------------------------------------------------|-8-8-----8-----8-8--8\-|


                  ~                                                     ~~~
                                             |-3-|
  S S e e E +S  S Q  S S   S S e e E +S  t T T T T  S     +S       +S   E
|------------------------|------------------------------------------------|
|---------3-(3)----------|---------1-(1)sx--------------------------------|
|---------3-(3)----------|---------1-(1)sx---------17b19r(17)b19==(17)-20-|
|---------3-(3)----------|---------1-(1)sx-------x------------------------|
|-----1-3-x--------------|-------1-x-----------x--------------------------|
|-3-3-----3-----3-3--3-2-|-1-1-4---x---------x----------------------------|


            \1.5____/
 ~~~~~~~                           ~~~~~
   +S    S  E      +Q    +E       +E   T T   E.
|-----------------------------------------------|
|-------15-18-----(18)--(18)b21==(18)r----------|
|-(20)r-----------------------------------------|
|--------------------------------------x--------|
|----------------------------------------x\--x\-|
|-------------------------------------------15\-|


                                                   <            >
  PM--|           ~       PM--|
  S S e e E +S  S Q  E    S S E E E H      H    Q  Q    +H     +H       W
|-----------------------|----------------:------------:---------------:------*|
|---------8-(8)---------|---------3------:------------:---------------:------*|
|---------8-(8)---------|---------3------:------------:---------------:------*|
|---------8-(8)---------|---------3------:---------3--:-(3)----(3)----:------*|
|-----6-8-x-------------|-----1h3-x------:---------3--:-(3)----(3)----:------*|
|-8-8-----x-----8-8--8\-|-3-3-----3------:---------1--:-(1)----(1)----:------*|



10. Ice Cream Man

Standard Tuning


'Dedicate one to the ladies'   Now,

|----------------------|----------------------|   ||
|------O---O---O---O---|------O---O---O---O---| . ||
|----------------------|----------------------|   ||
|----------------------|----------------------|   ||
|------------2---4-----|----5---4---2---4-----| . ||
|----O---4-------------|----------------------|   ||

   summertimes here babe   need somethin to keep you
   ice cream man           stop me when I'm passin by
||----------------------|----------------------|
||.---------------------|----------------------|
||----------------------|----------------------|
||----------------------|----------------------|
||.---2-2-4-2-2-2-4-2---|----7-7-9-7-7-7-9-7---|
||----O-O-O-O-O-O-O-O---|----5-5-5-5-5-5-5-5---|

    cool                               Ah, now
                              Oh, my, my,
|----------------------|----------------------|
|------O---O---O---O---|------O---O---O---O---|
|----------------------|----------------------|
|----------------------|----------------------|
|----2---4---5---4-----|----2---4---2---4-----|
|----O---O---O---O-----|----O---O---O---O-----|

  summertimes here babe    need somethin  to keep you
  I'm your ice cream man stop me when I'm passin by
|----------------------|----------------------|
|----------------------|----------------------|
|----------------------|----------------------|
|----------------------|----------------------|
|----7-7-9-7-7-7-9-7---|----7-7-9-7-7-7-9-7---|
|----5-5-5-5-5-5-5-5---|----5-5-5-5-5-5-5-5---|

   cool                             Better look
                                    See now
|----------------------|----------------------|
|------O---O---O---O---|------O---O---O---O---|
|----------------------|----------------------|
|----------------------|----------------------|
|----2---4---5---4-----|----2---4---2---4-----|
|----O---O---O---O-----|----O---O---O---O-----|

   out now though            Dave's got somethin for you
   all my      flavors are   guaranteed to satis-
|-------------------------|----------------------|
|-------------------------|----------------------|
|-------------------------|----------------------|
|-------------------------|----------------------|
|----9-9-11-9-9-9-11-9----|----7-7-9-7-7-7-9-9---|
|----7-7--7-7-7-7--7-7----|----5-5-5-5-5-5-5-5---|

     Tell ya what it is                   I'm your
     fy  Hols a second baby
|----------------------|--------7--7---7------|  ||
|------O---O---O---O---|--------7--7---7------| .||
|----------------------|--------8--8---8------|  ||
|----------------------|--------9--9---9------|  ||
|----2---4---5---4-----|----2---9--9---9------| .||
|----O---O---O---O-----|----O---7--7---7------|  ||

I got good lemonade ah,   dixie     cups
|-----O----------------|--O---------O---------|
|-----O----------------|--O---------O---------|
|-----1----------------|--1---------1---------|
|-----2----------------|--2---------2---------|
|-----2----------------|--2---------2---------|
|-----O----------------|--O---------O---------|

          all flavors and push ups to I'm your
|-----O----------------|----------------------|
|-----O----------------|----------------------|
|-----1----------------|----------------------|
|-----2----------------|----------------------|
|-----2----------------|----------------------|
|-----O----------------|--O---2---3---4-------|

    ice cream man baby     stop me when I'm passin by
|----------------------|----------------------|
|----------------------|----------------------|
|----------------------|----------------------|
|----------------------|----------------------|
|----7-7-9-7-7-7-9-7---|----7-7-9-7-7-7-9-7---|
|----5-5-5-5-5-5-5-5---|----5-5-5-5-5-5-5-5---|

                                      See now
|----------------------|----------------------|
|------O---O---O---O---|------O---O---O---O---|
|----------------------|----------------------|
|----------------------|----------------------|
|----2---4---5---4-----|----2---4---2---4-----|
|----O---O---O---O-----|----O---O---O---O-----|

  all my flavors are guaranteed   to    satis-
|------------------------|----------------------|
|------------------------|----------------------|
|------------------------|----------------------|
|------------------------|----------------------|
|----9-9-11-9-9-9-11-9---|----7-7-9-7-7-7-9-7---|
|----7-7--7-7-7-7--7-7---|----5-5-5-5-5-5-5-5---|

fy       hold on one more             Well, I'm
|----------------------|----7---7---7---7-----|
|----------------------|----7---7---7---7-----|
|----------------------|----8---8---8---8-----|
|----------------------|----9---9---9---9-----|
|----2-2-4-2-2-2-4-2---|----9---9---9---9-----|
|----O-O-O-O-O-O-O-O---|----7---7---7---7-----|

usually passin by just about eleven o'clock
uh, huh, I never stop, I'm usually passin by
just about eleven o'clock,  and if you let me
cool you one time, you'll be my regular stop.
Alright boys!   (this is over the verse part above)

I got good lemonade, dixie cups, all flavors and push
ups too.  I'm your ice cream man, stop me when I'm passin
by (etc.   this is where the distorted guitar comes in,
again playing basically the same thing-look at section
after solo for a hint)

(Now to the solo)

                     Ah,      one      time
      (let ring . . . . . . . . . . . . .)
           sl.         sl.
|----9----------------------|---------------12----12---|
|---(9)--------14-----------|--16-------16-------------|
|---(9)-9-9~14----14--------|-----16-------------------|
|---(7)---9~14-------14~16--|--------16----------------|
|---------------------------|--------------------------|
|---------------------------|--------------------------|

             h  p  h              h p
|----16-19-12^16^12^14-12-16-19-12^16^12-14-12--|
|-----------------------------------------------|
|-----------------------------------------------|
|-----------------------------------------------|
|-----------------------------------------------|
|-----------------------------------------------|

             h  p                    p     p
|----16-19-12^16^12-14-12-16-19-12-16^12-14^12--|
|-----------------------------------------------|
|-----------------------------------------------|
|-----------------------------------------------|
|-----------------------------------------------|
|-----------------------------------------------|

             h  p                 h  p
|-----------------------------------------------|
|----16-19-12^16^12-15--------------------------|
|----------------------12-16-19-12^16^12-14-----|
|-------------------------------------------12--|
|-----------------------------------------------|
|-----------------------------------------------|

             h  p
|-----------------------------------------------|
|-------------------------------------15>17-----|
|-----------------------------------------------|
|----16-19-12^16^12-14--------------------------|
|----------------------12-16-19-O---------------|
|-----------------------------------------------|

                h  p  h  p  h   t-sl.  t-sl.      (Here Eddie taps with
|-----------------------------------------------|  his right index finger
|----15>18>15-12^15^12^15^12^15-17~-15-17~-15---|  and slides up toward the
|-----------------------------------------------|  pick-ups and the string
|-----------------------------------------------|  pulls off onto the note.
|-----------------------------------------------|  The slide goes to no
|-----------------------------------------------|  exact note but the
                                                   pull-off does.)
     t-sl.  t-sl.  t-sl. p           p
|-----------------------------------------------|
|----17~-15-17~-15-17~-15^12--------------------|
|----------------------------14->-15->-14^12----|(slow bend)
|-----------------------------------------------|
|-----------------------------------------------|
|-----------------------------------------------|

        ! ! !  p  p  !!!!!!dive down 1 1/2 step!!!!
|-----------------------------------------------|
|-----------------------------------------------|
|----14->->-15-^12^O----------------------------|(Gradual bend while
|-----------------------------------------------| whanging w/ bar)
|-----------------------------------------------|
|-----------------------------------------------|

  !!!!then back up!!
|--------------------------------------------|
|------------------15>17>15>17---------------|
|---(O)--------------------------------------|
|--------------------------------------------|
|--------------------------------------------|
|--------------------------------------------|


|----------------------12-15-16-16-----------|
|---(15)-15------------------------15>17-----|
|--------------------------------------------|
|--------------------------------------------|
|--------------------------------------------|
|--------------------------------------------|

               h  p                p
|--------12------------------------------------|
|---(15)-----12^15^12------------15^12---------|
|---------------------14-*-15-14-------14>16---|
|----------------------------------------------|
|----------------------------------------------|
|----------------------------------------------|

                p                        p
|--------------------------------------------|
|----12-------15^12-------12-----------------|
|-------15-14-------14>16----15-14-12>14^O---|
|--------------------------------------------|
|--------------------------------------------|
|--------------------------------------------|

      !!!!dive bomb 3 steps!!!Then back up!!
|-----------------------------------------------|
|-----------------------------------------------|
|----(O)--------------------------------*-12->--|
|-----------------------------------------------|
|-----------------------------------------------|
|-----------------------------O-----------------|

     slow bend      t p
|----------------------------------|
|----------------------------------|(Tapping is done while bend is still
|----(12)->-15------15^12----------| being held-and into next measure)
|----------------------------------|
|----------------------------------|
|----------------------------------|

     t p    release bend           p
|--------------------------------------------|
|-----------------p--------------------------|
|----15^12----(12)^9--11--11>12>11-^-9-------|
|--------------------------------------------|
|--------------------------------------------|
|--------------------------------------------|

     [semi harm.     ]  sl. p
|--------------------------------|
|--------------------------------|
|----11---9----------------------|
|-------------11---9-------------|
|----------------------11~10^9---|
|--------------------------------|

                 sl.       sl.
|---------------------------------|
|---------------------O-----------|
|--------------------------*~16---|
|---------------------------------|
|----10>12----(10)~2--------------|
|---------------------------------|

                                sl.   sl.
|----16----16----16----16----16-~---------|
|-----------------------------------------|
|-------16----16----16----16----16~(9)~---|
|-----------------------------------------|
|-----------------------------------------|
|-----------------------------------------|

    sl.                                    sl.
|--------15----15----15----15----15-------------|
|-----------------------------14----14-14-------|
|----~15----15----15----15----15---(15)---15~---|
|-----------------------------------------------|
|-----------------------------------------------|
|-----------------------------------------------|

    sl.                 sl.      sl.
|-------------16----16-------19-------21---|
|-------15---------------------------------|
|---~16----16----16----16~19----19~21------|
|------------------------------------------|
|------------------------------------------|
|------------------------------------------|

       sl.                  hold bend into next measure
|---(21)~(19)-19-------------------|
|----------------------O---15>19---|
|----21-~-19-------O-------15>19---|
|----------------------------------|
|----------------------------------|
|----------------------------------|


|---------------------12-----------12---------|
|----(15)---(15>17)------15>19--------15>19---|
|----(15)---(15>17)---------------------------|
|---------------------------------------------|
|---------------------------------------------|
|---------------------------------------------|


|-----------12---------12------14>15---|
|----(15)------15>17------12-----------|
|--------------------------------------|
|--------------------------------------|
|--------------------------------------|
|--------------------------------------|

                           p
|----(14)>16-12-------------------------------|
|---------------12----------------------------|
|------------------14>15>14^12--14>15-14>15---|
|---------------------------------------------|
|---------------------------------------------|
|---------------------------------------------|

                   1/4 bend      p
|--------------------------------------------|
|------------------------------------15>17---|
|----12>14--14>15--14>---12>14>12^0----------|
|--------------------------------------------|
|--------------------------------------------|
|--------------------------------------------|

               p                 p
|---------12------------------------------|
|----(15)----15^12----12-------15^12------|
|------------------15----15-14-------15---|
|-----------------------------------------|
|-----------------------------------------|
|-----------------------------------------|

                p
|-------------------------------|
|----12-------15^12----12---O---|
|-------15-14-------O---*---O---|
|-------------------O-------O---|
|-------------------------------|
|-------------------------------|

       p        p        p           h
|------------------------------------------|
|----12^11---------------------------------|
|----------14-12^11----12^11----11---------|
|-------------------14-------14----12^14---|
|------------------------------------------|
|------------------------------------------|

                            I'm your
       h                        sl.
|--------------------------------------|
|--------------------------------------|
|--------------------------------------|
|----11^12----11-----------------------|
|----------14----12-14-----------------|
|-------------------------------*~-----|

    ice cream man            stop me when I'm passin by

|------------------------|----------------------|
|------------------------|----------------------|
|------------------------|----------------------|
|----9-9-11-9-9-9-11-9---|----------------------|
|----7-7--7-7-7-7--7-7---|----7-7-9-7-7-7-9-7---|
|------------------------|----5-5-5-5-5-5-5-5---|

                                          Im' your
|------------------------|------------------------|
|------------------------|------------------------|
|------------------------|------------------------|
|----9-9-11-9-9-9-11-9---|----9-9-11-9-9-9-11-9---|
|----7-7--7-7-7-7--7-7---|----7-7--7-7-7-7--7-7---|
|------------------------|------------------------|

  ice cream man,      stop me when I'm passin by
|----------------------|----------------------|
|----------------------|----------------------|
|----------------------|----------------------|
|----------------------|----------------------|
|----7-7-9-7-7-7-9-7---|----7-7-9-7-7-7-9-7---|
|----5-5-5-5-5-5-5-5---|----5-5-5-5-5-5-5-5---|

                                        They say
|-------------------------|------------------------|
|-------------------------|------------------------|
|-------------------------|------------------------|
|----9-9-11-9-12-9-11-9---|----9-9-11-9-9-9-11-9---|
|----7-7--7-7--7-7--7-7---|----7-7--7-7-7-7--7-7---|
|-------------------------|------------------------|

    all my flavors are guar-
|-------------------------|
|-------------------------|
|-------------------------|
|-------------------------|
|----9-9-11-9-9-9-11-9----|
|----7-7--7-7-7-7--7-7----|

   anteed to satisfy!
|---------------------------|
|---------------------------|
|--------------------sl.----|
|----2-------4-2-2---4~9----|
|----O-------O-O-O----------|
|---------------------------|

             sl.           One
|--------------------------------|
|-----9------------14------------|
|--------9-(9)~14-----14--sl.----|
|----(9)----9-~14--------14~16---|
|--------------------------------|
|--------------------------------|

    time         boys!
|---------------------------------|
|----16----------16---------------|
|-------16--------------*---------|
|----------16-----------*---------|
|----------------------------sl.--|
|----------------------------*~---|

                          I'm your
|-----------------------------------|
|----------------------------sl.----|
|----11>13----11>13---9----(9)~-----|
|-----------------------------------|
|-----------------------------------|
|-----------------------------------|

  ice cream man.____
|-----------------------------------|
|------------------15>17------------|
|------------------------15---------|
|-----------------------------------|
|-----------------------------------|
|-----------------------------------|

                        -I'm your
                   grad bend  sl.
|-----------------------------------|
|-----------------------------------|
|----12>14-----14--12>14---(12)~----|
|-----------------------------------|
|-----------------------------------|
|-----------------------------------|

   ice     cream  man!___
|--------------------------19>21----|
|-----------------------------------|
|-----------------------------------|
|-------*---------------------------|
|---------*-------------------------|
|-----------O-----------------------|

                           B-b-b-b-
|----(19)>19---->19-----------------|(bent before picking)
|------------------------17---------|
|-----------------------------------|
|-----------------------------------|
|-----------------------------------|
|-----------------------------------|

   b - b - b - ba - by!
|-----------------------------------|
|----(17)~---------------12>14>12---|(slow release)
|-----------------------------------|
|-----------------------------------|
|-----------------------------------|
|-----------------------------------|

                       Ah,   my,
                         !!dive  3 !!
|-----------------------------------|
|-----------------------------------|
|---(12)-----9---11>12-^-9----------|
|-----------------------------------|
|-----------------------------------|
|-----------------------------------|

    my,     my
 !!up!!dive 3!!up!!dive 2 1/2!!!!
|-----------------------------------|
|-----------------------------------|
|----(9)----------------------------|
|-----------------------------------|
|-----------------------------------|
|-----------------------------------|

     All my flavors are       Guarante-e-e-e-e-e-e-e-e-e-e-e-ed
|---------------------|----------------|
|----4----------------|----2-----------|
|----4----------------|----2-----------|(free-time)
|----4----------------|----2-----------|
|----2----------------|----O-----------|
|---------------------|----------------|

    to satis-uh-fy  yeah!

                               trill
|-----------------------------------------|
|-----------------------------------------| (trill of hammering on and
|-----------------------------------------|  pulling off)
|------------------------------------sl.--|
|----7----7--5------5--4----4--3-^-(5)~---|
|-----------------------------------------|

      Ow!__
|--------------8----7--------------------|
|----*---------8----7--------------10----|
|-----*--------8----7-------------*------|
|------*-------7----6------------*-------|
|-------*------8----7-----------*--------|
|----------------------------------------|

             p  h sl-sl.        sl-sl.   p h  sl-sl.   p  p
|-------------------------------------------------------------------|
|----14-12-14^12^10~9~10-14-12-10~9~10-14^12^10~9~10----------------|
|----------------------------------------------------13^11^9----9---|
|------------------------------------------------------------14-----|
|-------------------------------------------------------------------|
|-------------------------------------------------------------------|

       p  p sl.   p    p sl.     all slides                      sl.                    sl.
|----------------------------------------------------------------7~---||
|----------------------------------------------------------------7~---||
|----------------------------------------------------------------7~---||
|----14^12^10~9-10^9---------10----------------------------------6~---||
|--------------------12^10~9----9~7~~5~~~4~~2~~12~11~~7~~5>7-----7~---||
|---------------------------------------------------------------------||


11. On Fire


Gtr I (Eb Ab Db Gb Bb Eb) - 'Edward Van Halen - Rhythm / Lead w/dist & flange'

Intro
  Q=182
 4/4
  Gtr I
  H    H      H    H      H.      E  E   +Q.       +E  +E  Q.
|-----------|-----------|--------------|------------------------|
|-----------|------7----|-4------------|------------------------|
|-9----7----|-5----7----|-4------------|------------------------|
|-9----7----|-5----7----|-4------------|------------------------|
|-7----5----|-3----5----|-2------------|------------------------|
|-----------|-----------|---------x\-7-|-(7)b10====(7)r(7)-x\---|


                                             ~~~ TP   TPTPTP TP TP TP TP TP
  H    H      H    Q  E E      +E  +Q   +E  +Q   Q    E E E  E  E  E  E  E
|-----------|----------------|----------------------|-----------------------|
|-----------|------7---------|----------------------|-----------------------|
|-9----7----|-5----7----4b7==|=(4)-(4)r=(4)-(4)--4S=|=7S8S9S10S11S13S14S15S=|
|-9----7----|-5----7---------|----------------------|-----------------------|
|-7----5----|-3----5---------|----------------------|-----------------------|
|-----------|----------------|----------------------|-----------------------|


   TP      TP      TP
                              |------3------|
   Q       Q       Q   Q     +E       +E   +E       +E    E      +Q     Q
|-------------------------|-------------------------------------------------|
|-------------------------|-------------------------------------------------|
|-16b18===16b19===16--16r=|=(16)b19==(16)r(16)b19==(16)r-16b19==(16)r-------|
|-------------------------|-------------------------------------------------|
|-------------------------|-------------------------------------------------|
|-------------------------|--------------------------------------------14\--|


   E  E  E  E E E  E  E   E E  E  E E E Q
|-----------------------|-------------------||
|-----------------------|-------------------||
|-------<5>-------<5>---|-----<5>-----------||
|-<5>-x-----x-x-x-----x-|-x-x-----x-x-x-----||
|-----------------------|-------------------||
|-----------------------|---------------7\--||


             PM|                                 PM|
  Q  E E E E E E   E E E E +Q.   E    Q  E E E E E E   E E E E +Q   E. S
|----------------|------------------|----------------|-------------------|
|----------------|------------------|----------------|-------------------|
|----------------|------------------|----------------|-------------------|
|----------5-----|-------7-(7)------|----------5-----|-------7-(7)-------|
|----7---7-------|-7---7-5-(5)------|----7---7-------|-7---7-5-(5)-------|
|-0----------0-0-|---------------7\-|-0----------0-0-|--------------5s12-|


             PM|
  Q  E E E E E E   E E E E +Q    Q
|----------------|-------------------|
|----------------|-------------------|
|----------------|-------------------|
|----------5-----|-------7-(7)-------|
|----7---7-------|-7---7-5-(5)-------|
|-0----------0-0-|--------------10\--|


  PM
  Q   Q    E   Q    E     +Q     E E +Q   E. S
|----<7>---------------|-----------------------||
|-------------<7>------|-----------------------||
|---------<5>------<7>-|-(<7>)-----------------||
|----------------------|-----------------------||
|----------------------|-----------7-(7)-------||
|-0--------------------|--------12S5-(5)--5s12-||


 Verse 1
  PM--------|        PM----|        PM|        PM|   PM|     PM|           ~
  E E E E E E  E.S   E E E E S E  S E E   Q  E E E E E E   E E E E +E   E  Q
|------------------|--------------------|----------------|--------------------|
|------------------|--------------------|----------------|-5-----8-(8)-(8)-8--|
|------------------|--------------------|----7-----7-----|-7-----7-(7)-(7)-7--|
|------------------|--------------------|----7-----7-----|-7-----5-(5)-(5)-5--|
|------------------|----------------7-7-|-5----5-5---5-5-|---5-5--------------|
|-0-0-0-0-0-0-12sx-|-0-0-0-0-0h2s12-x-x-|----------------|--------------------|


             PM|
  Q  E E E E E E   E E E E +Q.    E       +Q.    E Q  Q      Q  E E +Q   E. S
|----------------|----------------------|-----------------|-------------------|
|----------------|----------------------|-----------------|-------------------|
|----------------|---------------/9b12==|=(9)r------------|-------------------|
|----------5-----|-------7-(7)----------|-----------------|-------------------|
|----7---7-------|-7---7-5-(5)----------|--------xSxS=x\--|-------7-(7)-------|
|-0----------0-0-|----------------------|--------xSxS=x\--|-19s=3-5-(5)--3s12-|


     PM--------|        PM----|              PM|   PM|
  Q  E E E E E E   E. S E E E E  S E.   Q  E E E E E E
|----------------|--------------------|----------------|
|----------------|--------------------|----------------|
|----------------|--------------------|----7-----7-----|
|----------------|--------------------|----7-----7-----|
|----------------|--------------------|-5----5-5---5-5-|
|-0--0-0-0-0-0-0-|-3s12-0-0-0-0-12sx--|----------------|


      PM|       ~~                PM|
   E  E E E +E  Q.     Q  E E E E E E   E E E E +Q   E  E
|--------------------|----------------|-------------------|
|-(8)-----8-(8)-8----|----------------|-------------------|
|--7------7-(7)-7----|----------------|--------------7s14-|
|--7------5-(5)-5----|----------5-----|-------7-(7)-------|
|-----5-5------------|----7---7-------|-7---7-5-(5)-------|
|--------------------|-0----------0-0-|-------------------|


                              T             T             T
                     |--3--|  |--------6---------|  |-------6--------|
   S  S  S  S  S  S  S  S  S  T T  S  S  S  T T  S  S  S  T T  S  S  S
|----------------------------------------------------------------------|
|-12h15p12h15p12h15p12h15p12-17sxp12h15p12-17sxp12h15p12-17sxp12h15p12-|
|----------------------------------------------------------------------|
|----------------------------------------------------------------------|
|----------------------------------------------------------------------|
|----------------------------------------------------------------------|


   T
   E S S  Q   E E E E
|----------------------||
|-17sx-----------------||
|----------------------||
|-----------------2----||
|---------------2---4--||
|--------14\--3-----2--||


 Pre-Chorus
  $
             PM------------|                PM----------------|
  +H     +E  E E E   E E E E E E E E   +Q   E E E E E E   E E E E E E E E
|------------------|-----------------|------------------|-----------------|
|------------------|-----------------|------------------|-----------------|
|------------------|-----------------|------------------|-------------4-6-|
|------------------|-------------2---|------------------|-----------4---6-|
|-(4)----(4)-------|-----------2---4-|-(4)--------------|-------0-5-----4-|
|-(2)----(2)-2-2-2-|-2-2-2-0-3-----2-|-(2)--2-2-2-2-2-2-|-2-2-2-----------|


           PM--------------|                  PM--|
  +Q   E E E E E E   E E E E E S S E E   +Q   E E E Q  E   Q  Q  Q  Q
|------------------|-------------------|-----------------|-------------||
|------------------|-------------------|-----------------|-------------||
|-(6)--------------|---------7-7-7-7-6-|-(6)--------6----|-6--6--6s=7--||
|-(6)----6-6-------|---------7-7-7-7-6-|-(6)--------6----|-6--6--6s=7--||
|-(4)--4---4-4-4-4-|-4-4-4-4-5-5-5-5-4-|-(4)--4-4-4----4-|-------------||
|------------------|-------------------|-----------------|-------------||


 Chorus
  Q  E E +E  E  Q     E Q.   +H       Q  E E +E  E  Q     E Q.   +H
|------------------|----------------|------------------|----------------|
|-8--8-7-(7)-7-10--|-10-------------|-8--8-7-(7)-7-10--|-10-------------|
|-7--7-7-(7)-7--9--|--9-------------|-7--7-7-(7)-7--9--|--9-------------|
|-9--9-7-(7)-7-11--|-11-------------|-9--9-7-(7)-7-11--|-11-------------|
|------------------|----------------|------------------|----------------|
|------------------|----0----(0)----|------------------|----0----(0)----|


                             To Coda
  Q  E E +E  E  Q     E Q.   +H       Q  E E +E  E  Q     E Q.   +Q    Q
|------------------|----------------|------------------|-------------------||
|-8--8-7-(7)-7-10--|-10-------------|-8--8-7-(7)-7-10--|-10----------------||
|-7--7-7-(7)-7--9--|--9-------------|-7--7-7-(7)-7--9--|--9----------------||
|-9--9-7-(7)-7-11--|-11-------------|-9--9-7-(7)-7-11--|-11----------------||
|------------------|----------------|------------------|-------------------||
|------------------|----0----(0)----|------------------|----0----(0)--12\--||


   Bridge
    PM|   PM|   PM|     PM|              PM|   PM|   PM|     PM|
    E E E E E E E E   E E E E +Q   Q     E E E E E E E E   E E E E +Q   Q
||------2-----0-----|-3-----2-(2)------|-----2-----0-----|-3-----2-(2)--------||
||o-----2-----0-----|-3-----2-(2)------|-----2-----0-----|-3-----2-(2)-------o||
||----------------5-|-----4------------|---------------5-|-----4--------------||
||----4-----5-----5-|-----4------------|---4-----5-----5-|-----4--------------||
||o---4-----5---0-3-|---0-2------------|---4-----5---0-3-|---0-2-------------o||
||--0-2---0-3-------|--------------7\--|-0-2---0-3-------|--------------7\----||


                                       PM----------|             ~
  E E E E E E E E   E E Q  +E  E Q     E E E E E E E E   E E E E H
|-----------------|------------------|-----------------|--------------|
|-----------------|------------------|-----------------|--------------|
|-----------------|------------------|-----------------|--------------|
|-----------------|------------------|-----------------|--------------|
|---------------3-|---0-2--(2)sx-----|---------------3-|---0-2h5p2----|
|-0-2-2-0-3-3-0---|--------------7\--|-0-2-2-0-3-3-0---|--------------|


  PM----------|                        PM----------|
  E E E E E E E E   E E Q  +E  E Q     E E E E E E E E   E E E E Q  E E
|-----------------|------------------|-----------------|----------------||
|-----------------|------------------|-----------------|----------------||
|-----------------|------------------|-----------------|----------------||
|-----------------|------------------|-----------------|----------------||
|---------------3-|---0-2--(2)sx-x\--|---------------3-|---0-2h5p2--4s7-||
|-0-2-2-0-3-3-0---|------------------|-0-2-2-0-3-3-0---|----------------||


 Guitar Solo
  |-3-| |-3-|         |-3-|
  E E E E E E S S S S E E E
|---------------------------|
|---------------------------|
|-------------4h5p4---------|
|-------4h5h7-------7-6h7h9-|
|-4h5h7---------------------|
|---------------------------|


                                     PM|
  |-3-| |-3-|            |-3-|   |-3-| |-3-|         |-3-|
  E E E E E E S S  S   S E E E   E E E E E E S S S S E E E
|------------------------------|---------------------------|
|-----------------(5)----------|---------------------------|
|-------------5h7p=5-----------|-------------6h7p6---6-----|
|-------5h7h9---------h9-5h7h9-|-------6-7-9-------9---7h9-|
|-5h7h9------------------------|-6h7h9---------------------|
|------------------------------|---------------------------|


                                   PM---|
  |-3--| |-3--|            |--3--| |--3--|           |--3--|
  E E  E E E  E Q   E  E   E  E  E E  E  E S  S S  S E  E  E
|------------------------|-----------------------------------|
|------------------------|-----------------------------------|
|---------------8--------|-----------------9h10p9------------|
|--------8h9h11----------|---------9-10-12--------12-9-11-13-|
|-7h9h11-----------------|-9h10h12---------------------------|
|------------------11s15-|-----------------------------------|


   |--3--|  |--3--|              |--3--|
   E  E  E  E  E  E  S  S  S  S  E  E  E
|-----------------------------------------|
|-----------------------------------------|
|-------------------10h12p10----10--------|
|----------10-12-14----------14----12h14--|
|-10h12h14--------------------------------|
|-----------------------------------------|


   |--3--|  |--3--|              |--3--|    |--3--|  |--3--|
   E  E  E  E  E  E  S  S  S  S  E  E  E    E  E  E  E  E  E  Q   +Q
|----------------------------------------|------------------------------||
|----------------------------------------|------------------------------||
|-------------------12h14p12----12-14-16-|-12h16p12h16p12h16p12--(12)\--||
|----------12-14-16----------16----------|------------------------------||
|-12h14h16-------------------------------|------------------------------||
|----------------------------------------|------------------------------||


             PM|                                 PM|
  Q  E E E E E E   E E E E +Q.   E    Q  E E E E E E   E E E E +Q   E. S
|----------------|------------------|----------------|-------------------|
|----------------|------------------|----------------|-------------------|
|----------------|------------------|----------------|-------------------|
|----------5-----|-------7-(7)------|----------5-----|-------7-(7)-------|
|----7---7-------|-7---7-5-(5)------|----7---7-------|-7---7-5-(5)-------|
|-0----------0-0-|---------------7\-|-0----------0-0-|--------------5s12-|


             PM|
  Q  E E E E E E   E E E E +Q   E. S
|----------------|-------------------|
|----------------|-------------------|
|----------------|-------------------|
|----------5-----|-------7-(7)-------|
|----7---7-------|-7---7-5-(5)-------|
|-0----------0-0-|--------------5s12-|


                                  |---3---|
   E    E    Q     E   Q    E     Q   Q   Q  H
|----------<12>--<12>-<5>------|------------------|
|------------------------------|-<5>-<5>----------|
|-----<12>-----------------<7>-|---------<7>------|
|------------------------------|------------------|
|------------------------------|-------------7----|
|-(0)--------------------------|-------------5----|


   E  E  E  E  E  E  E  E    E  E  E  E  E  E  E  E
|-------------------------|-------------------------|
|-------------------------|-------------------------|
|-------<5>---------<5>---|-------<5>---------<5>---|
|-<5>-x-----x-<5>-x-----x-|-<5>-x-----x-<5>-x-----x-|
|-------------------------|-------------------------|
|-------------------------|-------------------------|


   E  E  E  E  E  E  E  E    E  E  E  E  E  E Q
|-------------------------|-----------------------||
|-------------------------|-----------------------||
|-------<5>---------<5>---|-------<5>-------------||
|-<5>-x-----x-<5>-x-----x-|-<5>-x-----x-<5>-x-----||
|-------------------------|-----------------------||
|-------------------------|-------------------7\--||


 Verse 2
     PM--------|        PM----|             PM|   PM|       PM|       ~~
  Q  E E E E E E   E. S E E E E  E.S   Q  E E E E E E    E  E E E +E  Q.
|----------------|-------------------|----------------|--------------------|
|----------------|-------------------|----------------|-(8)-----8-(8)-8----|
|----------------|-------------------|----7-----7-----|--7------7-(7)-7----|
|----------------|-------------------|----7-----7-----|--7------5-(5)-5----|
|----------------|-------------------|-5----5-5---5-5-|-----5-5------------|
|-0--0-0-0-0-0-0-|-3s12-0-0-0-0-12sx-|----------------|--------------------|


             PM|
  Q  E E E E E E   E E E E +Q.   S  S
|----------------|------------------------|
|----------------|------------------------|
|----------------|-----------------/9b12==|
|----------5-----|-------7-(7)------------|
|----7---7-------|-7---7-5-(5)------------|
|-0----------0-0-|------------------------|


      TP    TP    ~~~~~~~~~
  +E  Q.   +Q.   +E    +Q.   E +Q   E. S
|--------------------|-------------------|
|--------------------|-------------------|
|-(9)-9----(9)r==(9)-|-(9)---------------|
|--------------------|-------------------|
|--------------------|-------7-(7)-------|
|--------------------|-------5-(5)--3s12-|


     PM--------|        PM----|             PM|   PM|       PM|       ~~
  Q  E E E E E E   E. S E E E E  E.S   Q  E E E E E E    E  E E E +E  Q.
|----------------|-------------------|----------------|--------------------|
|----------------|-------------------|----------------|-(8)-----8-(8)-8----|
|----------------|-------------------|----7-----7-----|--7------7-(7)-7----|
|----------------|-------------------|----7-----7-----|--7------5-(5)-5----|
|----------------|-------------------|-5----5-5---5-5-|-----5-5------------|
|-0--0-0-0-0-0-0-|-3s12-0-0-0-0-12sx-|----------------|--------------------|


     PM--------|
  Q  E E E E E E   E E E E +Q   E  E
|----------------|-------------------|
|----------------|-------------------|
|----------------|--------------7s14-|
|----------------|-------7-(7)-------|
|----------------|-7---7-5-(5)-------|
|-0--0-0-0-0-0-0-|-------------------|


                              T             T             T
                     |--3--|  |--------6---------|  |-------6--------|
   S  S  S  S  S  S  S  S  S  T T  S  S  S  T T  S  S  S  T T  S  S  S
|----------------------------------------------------------------------|
|-12h15p12h15p12h15p12h15p12-17sxp12h15p12-17sxp12h15p12-17sxp12h15p12-|
|----------------------------------------------------------------------|
|----------------------------------------------------------------------|
|----------------------------------------------------------------------|
|----------------------------------------------------------------------|


          D.S. al Coda
   T
   E S S  Q   E E E E
|----------------------||
|-17sx-----------------||
|----------------------||
|-----------------2----||
|---------------2---4--||
|--------14\--3-----2--||


 Outro
  &
                                  PM|                                   PM|
  Q  E E +E  E  Q     E Q.   +Q   E E   Q  E E +E  E  Q     E Q.   +Q   E E
|------------------|------------------|------------------|------------------|
|-8--8-7-(7)-7-10--|-10---------------|-8--8-7-(7)-7-10--|-10---------------|
|-7--7-7-(7)-7--9--|--9---------------|-7--7-7-(7)-7--9--|--9---------------|
|-9--9-7-(7)-7-11--|-11---------------|-9--9-7-(7)-7-11--|-11---------------|
|------------------|--------------x-x-|------------------|------------------|
|------------------|----0----(0)--0-0-|------------------|----0----(0)--0-0-|


                                   PM--|
    Q  E E +E  E  Q     E Q.   +E  E E E
||-------------------|-------------------|
||o-8--8-7-(7)-7-10--|-10----------------|
||--7--7-7-(7)-7--9--|--9----------------|
||--9--9-7-(7)-7-11--|-11----------------|
||o------------------|-------------x-x-x-|
||-------------------|----0----(0)-0-0-0-|


                                 PM--|
  Q  E E +E  E  Q     E Q.   +E  E E E
|------------------|---------------------||
|-8--8-7-(7)-7-10--|-10-----------------o||
|-7--7-7-(7)-7--9--|--9------------------||
|-9--9-7-(7)-7-11--|-11----------x-x-x---||
|------------------|-------------x-x-x--o||
|------------------|----0----(0)-x-x-x---||



 
Добавлено: 13.06.2013
Другие материалы по этой песне:
  • Аккорды и текст

Страница создана 13.06.2013
http://primanota.ru/van-halen/van-halen-chords.htm
Привет, Гость.
Предлагаем пройти революционный курс по гитаре.
Подарок от PrimaNota.Ru, забирай!