PrimaNota.ru - самый крупный в мире бесплатный архив песенных текстов, аккордов, табулатур и нот


Van Halen - Panama 5 String - бас-таба, видео

Регистрация Запомнить меня
Войти через:  Facebook Google Twitter Vk Yandex Mail.ru

Van Halen - Panama 5 String - бас-таба, видео

Печатать
Просмотров: 44
van halen_panama

Basstab by Jan Bjorklund, Finland  jani_bjorklund@yahoo.se>
You are welcome to request for basstabs!
Fingering and positions as suggested by TablEdit, please use common sense!

TablEdited by Jan Bjorklund
Tuning : B E A D G 	Time Signature: 4/4

   |       |       |       |          |       |       |       |
|-----9-9-9------------------------||---------------------------------|
|----------------------------------|*---------------------------------|
|----------------------------------||4-------4---4---4---4---4---4----|
|----------------------------------|*---------------------------------|
|----------------------------------||---------------------------------|

   |       |       |       |          |       |       |       |
|----------------------------------|---------------------------------||
|----------------------------------|-----------------7---------------||
|-4---4---4---4---4---4---4---4----|---------------------------------||
|----------------------------------|-7---5-------5-------5---5---5---||
|----------------------------------|---------------------------------||

 >1|       |       |       |        >2|       |       |       |
|---------------------------------||----------------------------------|
|---------------------------------*|----------------------------------|
|-----------------------------4-4-||----------------------------------|
|-5---5---5---5---5---5---5-------*|-5---5---5---5---5---5---5---7----|
|---------------------------------||----------------------------------|

   |       |       |       |          |       |       |       |
|----------------------------------|----------------------------------|
|----------------------------------|----------------------------------|
|----------------------------------|----------------------------------|
|----------------------------------|----------------------------------|
|----------------------------------|-----------------------------5----|

   |       |       |       |          |       |       |       |
|---------------------------------|||---------------------------------|
|---------------------------------*|*---------------------------------|
|---------------------------------|||---------------------------------|
|---------------------------------*|*----------------5----------------|
|-----5---5---5---5---5---5---5---|||5---5---5---5-------8-------5----|

 >3|       |       |       |          |       |       |       |
|---------------------------------||----------------------------------|
|---------------------------------*|----------------------------------|
|---------------------------------||---------------------5---6---7----|
|---------------------------------*|-----4---5---6---7----------------|
|-5---5---5---5---5---5---5---5---||-5--------------------------------|

   |       |       |       |          |       |       |       |
|----------------------------------||---------------------------------|
|----------------------------------|*---------------------------------|
|----------------------------------||---------------------------------|
|----------------------------------|*---------------------------------|
|-----5---5---5---5---5---5---5----||5---5---5---5---5---5---5---5----|

 >3|       |       |       |        >1|       |       |       |
|---------------------------------||---------------------------------||
|---------------------------------||---------------------------------*|
|---------------------------------||---------------------------------||
|---------------------------------||---------------------------------*|
|-5---5---5---5---5---5---5---5---||-5---5---5---5---5---5---5---5---||

 >3|       |       |       |          |       |       |       |
|----------------------------------|----------------------------------|
|---------------------4---4---4----|-4---4---4---4--------------------|
|----------------------------------|----------------------------------|
|----------------------------------|---------------------6---7---8----|
|-7-------7-------7----------------|-----------------7----------------|

   |       |       |       |          |       |       |       |
|----------------------------------|----------------------------------|
|----------------------------------|----------------------------------|
|-4-------4-------4-------4--------|-4-------4---4---4---4---4---4----|
|-----------------------------4----|-----4----------------------------|
|----------------------------------|----------------------------------|

   |       |       |       |          |       |       |       |
|----------------------------------|----------------------------------|
|----------------------------------|----------------------------------|
|-----5----------------------------|----------------------------------|
|---------6---5---------------8----|-4---------------------------7----|
|----------------------------------|-----8-----------7-------5--------|

   |       |       |       |          |       |       |       |
||---------------------------------|---------------------------------||
|*---------------------------------|---------------------------------*|
||---------------------------------|---------------------------------||
|*---------------------------------|---------------------------------*|
||5---5---5---5---5---8-------5----|-5---5---5---5---5---5---5---5---||

   |       |       |       |          |       |       |       |
|----------------------------------|----------------------------------|
|----------------------------------|----------------------------------|
|----------------------------------|----------------------------------|
|---------5---7-----5--------------|----------------------------------|
|-5---8-----------8---8-------5----|-5---5---5---5---5---8-------5----|

   |       |       |       |          |       |       |       |
|----------------------------------|----------------------------------|
|----------------------------------|----------------------------------|
|----------------------------------|----------------------------------|
|---------------------5---7---8----|-----7-------5-------8---5---7----|
|-5---5---5---5---5----------------|----------------------------------|

   |       |       |       |          |       |       |       |
|----------------------------------|----------------------------------|
|----------------------------------|----------------------------------|
|-------------------------4--------|---------7------------------------|
|-----7---7---7---7---8------------|---------------------5---6---7----|
|-----------------------------5----|-----5-------5---8----------------|

   |       |       |       |          |       |       |       |
|---------4------------------------|----------------------------------|
|----------------------------------|----------------------------------|
|-------------------------4--------|----------------------------------|
|-7---7-------7---7---8------------|-------------5---7-------5---7----|
|-----------------------------5----|-----5---8-----------8------------|

   |       |       |       |          |       |       |       |
|----------------------------------|----------------------------------|
|----------------------------------|----------------------------------|
|---------------------5---7--------|---------7-----------5---4--------|
|-7---7---7---7---7----------------|-----------------------------8----|
|-----------------------------5----|-5---5-------5---5----------------|

   |       |       |       |          |       |       |       |
|---------5------------------------|----------------------------------|
|----------------------------------|----------------------------------|
|-------------------------4---5----|-----5---5-------5----------------|
|-8---8-------8---8---8------------|---------------------8------------|
|----------------------------------|-------------------------8---7----|

   |       |       |       |          |       |       |       |
|----------------------------------|----------------------------------|
|----------------------------------|----------------------------------|
|----------------------------------|-------------------------5---4----|
|----------------------------------|----------------------------------|
|-5--------------------------------|----------------------------------|

   |       |       |       |          |       |       |       |
|----------------------------------|----------------------------------|
|----------------------------------|----------------------------------|
|----------------------------------|----------------------------------|
|-8--------------------------------|-8--------------------------------|
|-----------------------------8----|-------------------------8---7----|

   |       |       |       |          |       |       |       |
|----------------------------------|----------------------------------|
|----------------------------------|----------------------------------|
|----------------------------------|-7--------------------------------|
|-----------------------------7----|-------------------------7--------|
|-5--------------------------------|----------------------------------|

   |       |       |       |          |       |       |       |
|----------------------------------|----------------------------------|
|----------------------------------|----------------------------------|
|-----------------8----------------|----------------------------------|
|---------------------------8------|----------------------------------|
|-6--------------------------------|-6-----------------------8---7----|

   |       |       |       |          |       |       |       |
|----------------------------------|----------------------------------|
|----------------------------------|----------------------------------|
|----------------------------------|-7--------------------------------|
|-----------------------------7----|----------------------------------|
|-5--------------------------------|----------------------------------|

   |       |       |       |          |       |       |       |
|----------------------------------|----------------------------------|
|----------------------------------|----------------------------------|
|----------------------------------|----------------------------------|
|-8---8---8---8---8---8---8---8----|-8---8---8---8---8---8------------|
|----------------------------------|-------------------------8--------|

   |       |       |       |          |       |       |       |
|----------------------------------|----------------------------------|
|----------------------------------|----------------------------------|
|----------------------------------|-------------------------7--------|
|----------------------------------|----------------------------------|
|-5---5---5---5---5---5---5---5----|-5---5---5---5---5---5------------|

   |       |       |       |          |       |       |       |
|----------------------------------|----------------------------------|
|----------------------------------|----------------------------------|
|----------------------------------|----------------------------------|
|-8---8---8---8---8---8---8---8----|-8---8---8---8---8---8------------|
|----------------------------------|-------------------------8---7----|

   |       |       |       |          |       |       |       |
|----------------------------------|----------------------------------|
|----------------------------------|----------------------------------|
|----------------------------------|-------------------------7---5----|
|----------------------------------|----------------------------------|
|-5---5---5---5---5---5---5---5----|-5---5---5---5---5---5------------|

   |       |       |       |          |       |       |       |
|---------5------------------------|----------------------------------|
|----------------------------------|----------------------------------|
|----------------------------------|----------------------------------|
|-8---8-------8---8---8---8---8----|-8---8---8---8---8---8------------|
|----------------------------------|-------------------------8---7----|

   |       |       |       |          |       |       |       |
|----------------------------------|----------------------------------|
|----------------------------------|----------------------------------|
|----------------------------------|----------------------------------|
|----------------------------------|----------------------------------|
|-5---5---5---5---5---5---5---6----|-6---6---6---6---6---6---6---7----|

   |       |       |       |          |       |       |       |
|----------------------------------|----------------------------------|
|----------------------------------|----------------------------------|
|----------------------------------|----------------------------------|
|----------------------------------|-----------------------------4----|
|-7---7---7---7---7---7---7---8----|-8---8---8---8---8---8---8--------|

   |       |       |       |          |       |       |       |
|----------------------------------|----------------------------------|
|----------------------------------|----------------------------------|
|----------------------------------|----------------------------------|
|-4---4---4---4---4---4---4---5----|-5---5---5---5---5---5---5---6----|
|----------------------------------|----------------------------------|

   |       |       |       |          |       |       |       |
|----------------------------------|----------------------------------|
|----------------------------------|----------------------------------|
|----------------------------------|----------------------------------|
|-6---6---6---6---6---6---6---7----|-7---7---7---7---7---7---5---7----|
|----------------------------------|----------------------------------|

   |       |       |       |          |       |       |       |
|----------------------------------|----------------------------------|
|----------------------------------|----------------------------------|
|----------------------------------|----------------------------------|
|----------------------------------|----------------------------------|
|-5---5---5---5---5---8-------5----|-----5---5---5---5---5---5---5----|

   |       |       |       |          |       |       |       |
|----------------------------------|----------------------------------|
|----------------------------------|----------------------------------|
|---------------------5------------|----------------------------------|
|---------5---5---7----------------|----------------------------------|
|-5---8-----------------------5----|-5---5---5---5---5---5---5---5----|

   |       |       |       |          |       |       |       |
|----------------------------------|----------------------------------|
|----------------------------------|----------------------------------|
|----------------------------------|----------------------------------|
|-------------------5--------------|----------------------------------|
|-5---5---5---5---8---8-------5----|-5---5---5---5---5---5---5---5----|

   |       |       |       |
|----------------------------------|
|----------------------------------|
|----------------------------------|
|-----------------7----------------|
|-5---5---5---5-------8------------|




Created with TablEdit http://www.tabledit.com/

     
Добавлено: 21.11.2013
Другие материалы по этой песне:
  • Аккорды и текст

Страница создана 28.08.2013
http://primanota.ru/van-halen/panama-5-string-chords.htm
Привет, Гость.
Предлагаем пройти революционный курс по гитаре.
Подарок от PrimaNota.Ru, забирай!