PrimaNota.ru - самый крупный в мире бесплатный архив песенных текстов, аккордов, табулатур и нот


Van Halen - Lwan - таба, видео

Регистрация Запомнить меня
Войти через:  Facebook Google Twitter Vk Yandex Mail.ru

Van Halen - Lwan - таба, видео

Печатать
Просмотров: 55


Van halen, Solo Live Without a Net


Piste 1
     Q    Q    Q     Q        Q      Q     Q     Q
E||-----------------17----|---------17-----------------|
B||-------3----3----------|--19b----------19----19b----|
G||--2----0----2----------|----------------------------|
D||--2----0----0----------|----------------------------|
A||--0---------0----------|----------------------------|
E||-------3---------------|----------------------------|


   Q      Q     Q     Q        Q     Q      Q      Q
---------17----20----21----|----------------------------|
--19b----------------------|--19----19b----19b----19----|
---------------------------|----------------------------|
---------------------------|----------------------------|
---------------------------|----------------------------|
---------------------------|----------------------------|


   Q     Q      Q     Q         Q     Q     Q     Q
----------------------------|--------------------------|
----------------------------|--------------------------|
--19----21b----17----19b----|--19----17----19----------|
----------------------------|--------------------11----|
----------------------------|--------------------------|
----------------------------|--------------------------|


   Q     Q     Q     Q        Q     Q     Q     Q
--------------------------|--------------------------|
--------------------------|--------12----13----15----|
--------------11----12----|--14----------------------|
--12----14----------------|--------------------------|
--------------------------|--------------------------|
--------------------------|--------------------------|


   Q     Q     Q     Q        Q     Q     Q     Q
--------------------------|--------------11----12----|
--13----12----------12----|--13----15----------------|
--------------14----------|--------------------------|
--------------------------|--------------------------|
--------------------------|--------------------------|
--------------------------|--------------------------|


   Q     Q     Q     Q        Q     Q     Q     Q
--14----16----17----20----|--17----------------20----|
--------------------------|--------------17----------|
--------------------------|--------18----------------|
--------------------------|--------------------------|
--------------------------|--------------------------|
--------------------------|--------------------------|


   Q     Q     Q     Q        Q     Q     Q     Q
--14----17----20----20----|--20----17----20----17----|
--------------------------|--------------------------|
--------------------------|--------------------------|
--------------------------|--------------------------|
--------------------------|--------------------------|
--------------------------|--------------------------|


   Q     Q     Q     Q        Q     Q     Q     Q
--14----------------------|--------------------------|
--------20----17----14----|--17----20----17----14----|
--------------------------|--------------------------|
--------------------------|--------------------------|
--------------------------|--------------------------|
--------------------------|--------------------------|


   Q     Q     Q     Q        Q     Q     Q     Q
--------14----------------|--------------14----------|
--17----------20----17----|--14----17----------20----|
--------------------------|--------------------------|
--------------------------|--------------------------|
--------------------------|--------------------------|
--------------------------|--------------------------|


   Q     Q     Q     Q        Q     Q     Q     Q
--------------------------|--------------------------|
--14----14----14----14----|--------------------------|
--------------------------|--17----16----14----------|
--------------------------|--------------------17----|
--------------------------|--------------------------|
--------------------------|--------------------------|


   Q     Q     Q     Q        Q     Q     Q     Q
--------------------------|--------------------------|
--------------------------|--------------------------|
--17----16----14----16----|--17----16----14----16----|
--------------------------|--------------------------|
--------------------------|--------------------------|
--------------------------|--------------------------|


   Q     Q     Q     Q        Q     Q     Q     Q
--------------------------|--------------------------|
--------------------------|--------------------------|
--17----16----14----16----|--17----16----14----16----|
--------------------------|--------------------------|
--------------------------|--------------------------|
--------------------------|--------------------------|


   Q     Q     Q     Q
--------------------------|-------|-------|-------|-------|-------|-------|
--------------------------|-------|-------|-------|-------|-------|-------|
--17----16----14----------|-------|-------|-------|-------|-------|-------|
--------------------------|-------|-------|-------|-------|-------|-------|
--------------------10----|-------|-------|-------|-------|-------|-------|
--------------------------|-------|-------|-------|-------|-------|-------|


Добавлено: 21.01.2014
Другие материалы по этой песне:
  • Аккорды и текст

Страница создана 21.01.2014
http://primanota.ru/van-halen/lwan-chords.htm
Привет, Гость.
Предлагаем пройти революционный курс по гитаре.
Подарок от PrimaNota.Ru, забирай!