PrimaNota.ru - самый крупный в мире бесплатный архив песенных текстов, аккордов, табулатур и нот


Van Halen - Blood And Fire - текст песни, таба, бас-таба, видео

Регистрация Запомнить меня
Войти через:  Facebook Google Twitter Vk Yandex Mail.ru

Van Halen - Blood And Fire - текст песни, таба, бас-таба, видео

Печатать
Просмотров: 82
Авторы: Eddie Van Halen, Wolfgang Van Halen, David Lee Roth, Alex Van Halen

-------------------------------------------------------------------------------
                             BLOOD AND FIRE - Van Halen
-------------------------------------------------------------------------------

Tabbed by: Isaias Garcia (TexasFury)

Tuning: Half step down


      Intro                                               
         PM                                           
      E  E  E  E   E  E  E  E     E  E  E  E  E   E   
D#||-----------3p--2-----0-----|---------------------|
A#||------------------3-----3--|------------------3--|
F#||--------0------------------|--0--------0------0--|
C#||-----5---------------------|--------0-----4p--0--|
G#||--3------------------------|-----3---------------|
D#||---------------------------|---------------------|


     PM                                                                      
  E  E  E  E   E  E  E  E     E  E  E  E  E   E     E  E  E  E  E  E  E  E   
-----------3p--2-----0-----|---------------------|-----------0--L--2--3-----|
------------------3-----3--|---------------------|-----------------------3--|
--------0------------------|--0--------0---------|--------0-----------------|
-----5---------------------|--------0-----4p--0--|-----0--------------------|
--3------------------------|-----3---------------|--2-----------------------|
---------------------------|---------------------|--------------------------|


                                                   ^             
  E  E  E  E  E  E   E  E     E  E  E  E  E  E     H.            
-----------3--L--2p--0-----|--------------0-----|--0------------|
------------------------3--|-----------3-----3--|--2------------|
--------0------------------|--------0-----------|--0------------|
-----0---------------------|-----2--------------|--2------------|
--1------------------------|--0-----------------|--0------------|
---------------------------|--------------------|---------------|


                               Verse 1                         
     PM PM                     PM PM PM    PM    PM       
  E  E  E  E  E  E   E  E      E  E  E  E  E  E  E    E   
--L------------------------||-----------5-----3----------|
--L--------3-----2h--3-----||-----------5-----3----------|
--L-----2---------------2--||-----------6-----4-----4g6--|
--L--2------------------0--||--0--0--0-----0-----0-------|
--L------------------------||----------------------------|
---------------------------||----------------------------|


        PM PM       PM PM       PM PM    PM    PM PM     
  E  E  E  E  Q     E  E     E  E  E  E  E  E  S  S  E   
-----5--------------------|--3--------5-----3--------3--|
-----5--------7~----------|--3--------5-----3--------5--|
--L-----x-----7-----------|--4--------6-----4--------5--|
--------0--0--------0--0--|--0--0--0-----0-----0--0-----|
--------------------------|-----------------------------|
--------------------------|-----------------------------|


        PM                       PM PM    PM    PM       
  E  E  E  E  E  S S E  E     E  E  E  E  E  E  E    E   
--L--3-----3--L------------|-----------5-----3----------|
--L--5-----3--L------------|--3--------5-----3----------|
--L--5-----4--L------------|--2--------6-----4-----4g6--|
--------0--------0-0-0--0--|--0--0--0-----0-----0-------|
---------------------------|----------------------------|
---------------------------|----------------------------|


        PM PM       PM PM       PM PM PM    PM    PM     
  E  E  E  E  Q     E  E     E  S  S  E  E  E  E  E  E   
-----5--------------------|--3-----------5-----3-----3--|
-----5--------7~----------|--3-----------5-----3-----5--|
--L-----------7-----------|--4-----------6-----4-----5--|
--------0--0--------0--0--|--0--0--0--0-----0-----0-----|
--------------------------|-----------------------------|
--------------------------|-----------------------------|


        PM                       PM PM    PM    PM       
  E  E  E  E  E  S S E  E     E  E  E  E  E  E  E    E   
--L--3-----3--L------------|-----------5-----3----------|
--L--5-----3--L------------|-----------5-----3----------|
--L--5-----4--L------------|--2--------6-----4-----4g6--|
--------0--------0-0-0--0--|--0--0--0-----0-----0-------|
---------------------------|----------------------------|
---------------------------|----------------------------|


        PM PM       PM PM       PM PM    PM    PM PM     
  E  E  E  E  Q     E  E     E  E  E  E  E  E  S  S  E   
-----5--------------------|--3--------5-----3--------3--|
-----5--------7~----------|--3--------5-----3--------5--|
--L-----------7-----------|--4--------6-----4--------5--|
--------0--0--------0--0--|--0--0--0-----0-----0--0-----|
--------------------------|-----------------------------|
--------------------------|-----------------------------|


        PM                       PM PM    PM    PM       
  E  E  E  E  E  S S E  E     E  E  E  E  E  E  E    E   
--L--3-----3--L------------|-----------5-----3----------|
--L--5-----3--L------------|-----------5-----3----------|
--L--5-----4--L------------|--2--------6-----4-----4g6--|
--------0--------0-0-0--0--|--0--0--0-----0-----0-------|
---------------------------|----------------------------|
---------------------------|----------------------------|


        PM PM       PM PM       PM PM    PM    PM PM     
  E  E  E  E  Q     E  E     E  E  E  E  E  E  S  S  E   
-----5--------------------|--3--------5-----3--------3--|
-----5--------7~----------|--3--------5-----3--------3--|
--L-----------7-----------|--4--------6-----4--------0--|
--------0--0--------0--0--|--0--0--0-----0-----0--0-----|
--------------------------|-----------------------------|
--------------------------|-----------------------------|


                             Pre-chorus 1                     
  E  E  E  E  Q    E  E      H        E  E   E  E   
--3--3--3--2--0----------||---------------------7--|
--3--3--3--3--3----------||-----------------10-----|
--0--0--0--0--0-------2--||--L-----------9---------|
----------------------2--||--L--------7------------|
----------------------0--||--L---------------------|
-------------------3-----||------------------------|


  E   E  E  E  E   E  E   E     E   E   E   E   E   E   E   E   
--L---------7--L-------------|---------------------------------|
-----10-----------10--L--10--|-----10--12------10--12------10--|
---------9---------------12--|-----12--12--12--12--12------11--|
-------------------------12--|---------12------12------12--12--|
-----------------------------|---------------------------------|
-----------------------------|---------------------------------|


  E   E   Q     E    E   E   E     Q.     E  E  E  E  E   
--------------------------------|------------------------|
--L---9--10----12p--10------10--|--L---------------------|
--L--10--11-------------11---9--|--L---------------------|
--L--11--12------------------7--|--L---------------------|
-----------------------------0--|--L------0--0--0--0--0--|
--------------------------------|------------------------|


  E  E   E  E  E   E  E   E     E   E   E   E   E   E   E   E   
------------7--L-------------|---------------------------------|
--------10--------10--L--10--|-----10--12------10--12------10--|
-----9-------------------12--|-----12--12--12--12--12------11--|
-------------------------12--|---------12------12------12--12--|
--0--------------------------|---------------------------------|
-----------------------------|---------------------------------|


  E   E   Q     E    E   E   E     Q.     E  E  E  E  E   
--------------------------------|------------------------|
--L---9--10----12p--10------10--|--L---------------------|
--L--10--11-------------11---9--|--L---------------------|
--L--11--12------------------7--|--L---------------------|
-----------------------------0--|--L------0--0--0--0--0--|
--------------------------------|------------------------|


  E  E   E  E  E   E  E   E     E   E  E   E   E   E   E   E    
------------7--L-------------|---------------------------------|
--------10--------10--L--10--|-----10-----12--12--12--10---L\--|
-----9-------------------12--|-----12-----12--12--12--12---L\--|
-------------------------12--|-----12-----12--12--12--12---L\--|
--0--------------------------|-----10-----10--10--10--10---L\--|
-----------------------------|---------------------------------|


          PM PM PM    PM             PM PM PM PM PM     
  E    E  E  E  E  E  E  E     E  E  E  E  E  E  E  E   
----------------------------|--------------------------|
----------------3--2--------|--------------------------|
-------------2--------2--0--|--L--0--------------------|
----------2--------------0--|--L--0--------------------|
-----3g4--------------------|--------------------------|
-------------------------3--|--L--3--3--3--3--3--2--3--|


        PM PM       PM             PM PM       PM     
  E  E  E  E  E  E  E  E     E  E  E  E  E  E  E  E   
--------------------------|--------------------------|
--------------3--2-----0--|--L--0-----------0-----0--|
-----------2--------2--2--|--L--2-----------2-----2--|
--------2--------------2--|--L--2-----------2-----2--|
-----------------------0--|--L--0--0--0--0-----0-----|
--L--2--------------------|--------------------------|


          PM PM       PM             PM PM PM PM PM      
  E    E  E  E  E  E  E  E     E  E  E  E  E  E  E  E    
----------------------------|---------------------------|
----------------3--2--------|---------------------------|
-------------2--------2--0--|--L--0---------------------|
----------2--------------0--|--L--0---------------------|
-----3g4--------------------|---------------------------|
-------------------------3--|--L--3--3--3--3--3--2--3~--|


        PM PM       PM             PM PM              
  E  E  E  E  E  E  E  E     E  E  E  E  E  E  E  E   
--------------------------|--------------------------|
--------------3--2-----0--|--L--0--------------------|
-----------2--------2--2--|--L--2--------4--4--4--2--|
--------2--------------2--|--L--2--------2--2--2--2--|
-----------------------0--|--L--0--0--0--0--0--0--0--|
--L--2--------------------|--------------------------|


                               Verse 2                         
     PM PM                     PM PM PM    PM    PM       
  E  E  E  E  E  E   E  E      E  E  E  E  E  E  E    E   
---------------------------||-----------5-----3----------|
-----------3-----2h--3-----||-----------5-----3----------|
--------2---------------2--||-----------6-----4-----4g6--|
-----2------------------0--||--0--0--0-----0-----0-------|
---------------------------||----------------------------|
---------------------------||----------------------------|


        PM PM       PM PM       PM PM    PM    PM PM     
  E  E  E  E  Q     E  E     E  E  E  E  E  E  S  S  E   
-----5--------------------|--3--------5-----3--------3--|
-----5--------7~----------|--3--------5-----3--------5--|
--L-----x-----7-----------|--4--------6-----4--------5--|
--------0--0--------0--0--|--0--0--0-----0-----0--0-----|
--------------------------|-----------------------------|
--------------------------|-----------------------------|


        PM                    PM PM PM    PM    PM       
  E  E  E  E  E  S S E  E     E  E  E  E  E  E  E    E   
--L--3-----3--L------------|-----------5-----3----------|
--L--5-----3--L------------|-----------5-----3----------|
--L--5-----4--L------------|-----------6-----4-----4g6--|
--------0--5--L--0-0-0--0--|--0--0--0-----0-----0-------|
---------------------------|----------------------------|
---------------------------|----------------------------|


        PM PM       PM PM       PM PM    PM    PM PM     
  E  E  E  E  Q     E  E     E  E  E  E  E  E  S  S  E   
-----5--------------------|--3--------5-----3--------3--|
-----5--------7~----------|--3--------5-----3--------3--|
--L-----x-----7-----------|--4--------6-----4--------0--|
--------0--0--------0--0--|--0--0--0-----0-----0--0-----|
--------------------------|-----------------------------|
--------------------------|-----------------------------|


  Fade out                                           
  E        E  E  E  Q    E  E     W                  
--3--------3--3--2--0----------|-------------------||
--3--------3--3--3--3----------|-------------------||
--0--------0--0--0--0-------2--|--L----------------||
----------------------------2--|--L----------------||
----------------------------0--|--L----------------||
-------------------------3-----|-------------------||




Duration Legend
---------------
W - whole
H - half
Q - quarter
E - 8th
S - 16th
T - 32nd
X - 64th
. - note dotted
|-n-|  - n-tuplets


Tablature Legend
----------------
L - tied note
x - dead note
g - grace note
h - hammer on
p - pull off
S - shift slide
s - legato slide
/ -  slide into from below or out of upwards
\ -  slide into from above or out of downwards
~ - vibrato


Get my other tabs for Guitar Pro, Powertab, guitar/bass text and chords at
http://profile.ultimate-guitar.com/TexasFury/contributions/
Добавлено: 31.10.2013
Другие материалы по этой песне:

Страница создана 15.06.2013
http://primanota.ru/van-halen/blood-and-fire-chords.htm
Привет, Гость.
Предлагаем пройти революционный курс по гитаре.
Подарок от PrimaNota.Ru, забирай!