PrimaNota.ru - самый крупный в мире бесплатный архив песенных текстов, аккордов, табулатур и нот


Van Halen - 1984 - таба, видео

Регистрация Запомнить меня
Войти через:  Facebook Google Twitter Vk Yandex Mail.ru

Van Halen - 1984 - таба, видео

Печатать
Просмотров: 93
Авторы: Eddie Van Halen, Michael Anthony, David Lee Roth, Alex Van Halen

It surprised me that there was no 1984 album for this site. so i just figured i'd do it my self.

Track Listing:
1984
Jump
Panama
Top Jimmy
Drop dead legs
hot for teacher
I'll wait
girl gone bad
house of pain

1984:

This is arranged for guitar
---------------------------------11----------------------19----------|
-----12-----------9--------------12-------------19-------19----------|
-----13-----------9--------------13-------------16-------16----------|
-----14-----------11--------13---------------------------------------|
---------------------------------------------------------------------|
---------------------------------------------------------------------|


---18--------16--------14-------------14-----------------------------|
---19--------17--------16-------------14-----------16----------------|
---16--------16--------16-------------16-----------16----------------|
---------------------------------------------------------------------|
---------------------------------------------------------------------|
---------------------------------------------------------------------|


-------------14---16----19-------------------------------------------|
---14---16--------------21----------9----7--------7----------12------|
------------------------21----------9----8--------8----------13------|
------------------------------------9----9--------8----------14------|
---------------------------------------------------------------------|
---------------------------------------------------------------------|


---14----------------------------------------------14----------------|
---14----------------------------------------------------------------|
---16-----------------16-------12--------11--------------------------|
----------------------16-------13------------------------------------|
----------------------16-------14------------------------------------|
---------------------------------------------------------------------|

Jump:

||-------------------|---------------------|
||o----15-----17-----|-13-----13---15---15-|
||-----16-----17-----|-14-----14---16---16-|
||-----17-----17-----|-15-----15---17---17-|
||o------------------|---------------------|
||-------------------|---------------------|
 |-Rhy Fig 1

   +Q    E E E  E E  E    +E   Q   E  +H      3x
|----------------------|----------------------||
|-(15)--17-----13---10-|-(10)--8---8--(8)----o||
|-(16)--17-----14---10-|-(10)--9---7--(7)-----||
|-(17)--17-----15---10-|-(10)-10--10-(10)-----||
|----------------------|---------------------o||
|----------------------|----------------------||
                                end Rhy Fig 1-|

  Q   E E E  E E E    E E E  E E E  Q
|----20-----20-----|-20-----20-----15--|
|----22-----22-----|-22-----22-----17--|
|----22-----22-----|-22-----22-----17--|
|------------------|-------------------|
|------------------|-------------------|
|------------------|-------------------|


   +E  E  E E E  E E  E    +E   Q   E  +H
|-(15)------------------|---------------------||
|-(17)---13-----10---10-|-(10)--8---8--(8)----||
|-(17)---14-----10---10-|-(10)--9---7--(7)----||
|--------15-----10---10-|-(10)-10--10-(10)----||
|-----------------------|---------------------||
|-----------------------|---------------------||


 1st Verse
 Rhy Fig 1 x2

||----
||o--- (1st) & 2nd verses
||---- Rhy Fig 1 x2
||----
||o---
||----



 Pre-Chorus
  Gtr II
  ~~~~~~~~~~~~~~~          PM        PM              ~~~~~~~~~
  W          +H     H      E E E  E  E E E a E   +E  Q.   +Q.   S S
|----------|-------------|---------------------|--------------------|
|----------|-------------|---------------------|--------------------|
|-9--------|-(9)---------|-----5---------5-7s9-|-(9)s7----(7)-------|
|----------|-------------|---7---------5-------|--------------------|
|----------|-------------|-8-----(8)-7---------|----------------5-7-|
|----------|-------------|---------------------|--------------------|


  PM        PM              ~~
  E E E  E  E E E a E   +E  Q.   +Q.   S S
|---------------------|--------------------|
|---------------------|--------------------|
|-----5---------5-7s9-|-(9)s7----(7)-------|
|---7---------5-------|--------------------|
|-8-----(8)-7---------|----------------5-7-|
|---------------------|--------------------|


  PM        PM--|             ~~~~~~~~~
  E E E  E  E E E a  E    +E  Q.   +H
|----------------------|------------------|
|-----------------8s10-|-(10)s8----(8)----|
|-----5---------5------|------------------|
|---7---------5--------|------------------|
|-8-----(8)-7----------|------------------|
|----------------------|------------------|


   ~~~
  +H     H 
|-------------||
|-(8)---------||  Rhy Fig 1
|-------------||
|-------------||
|-------------||
|-------------||


  Q   E E E  E E E    E E E  E E  E E  E    +Q    E E E  E E  E
|------------------|---------------------|-------20-----15------|
|----15-----17-----|-13-----13---15---15-|-(15)--22-----17---10-|
|----16-----17-----|-14-----14---16---16-|-(16)--22-----17---10-|
|----17-----17-----|-15-----15---17---17-|-(17)--------------10-|
|------------------|---------------------|----------------------|
|------------------|---------------------|----------------------|


  ____________________    ______________      Guitar Solo
 |1.                     |2.
                                                 Gtr III
                                                        ~~~~~~~~    ~~~~
   +E   Q   E  +H          +E   Q   E  +H        E S S  Q   +E  a E Q
|----------------------||---------------------||-------18--(18)---6--------|
|-(10)--8---8--(8)----o||-(10)--8---8--(8)----||-----x----------x---9b11---|
|-(10)--9---7--(7)-----||-(10)--9---7--(7)----||---x-----------------------|
|-(10)-10--10-(10)-----||-(10)-10--10-(10)----||---------------------------|
|---------------------o||---------------------||---------------------------|
|----------------------||---------------------||---------------------------|


                        ~~~~~~                           ~~~
      |-3-|
  S S S S S S S S S S S E +E. +S     E  E    S  E  S E   Q    S S
|-6---------6----------------------|------------------------------|
|---6-9p6-------------6------------|---[6]b8---[6]---6b8-6b8------|
|---------9---9-8p6-8---6-(6)-(6)/-|------------------------------|
|----------------------------------|--------------------------8---|
|----------------------------------|----------------------------8-|
|----------------------------------|------------------------------|


                                 ~       T
           |--3--|     |-3-|        |-3--|
   E      +S   S S S S S S S S S Q  S S  S
|-----------------------------------6h9-13p=|
|-------------------------------------------|
|-[8]b10r([8])------------------------------|
|--------------8p6---6----------------------|
|------------------8---8p7p6s4-6-4----------|
|-------------------------------------------|


           T          T          T      T       T       T
  |----------13:8-----------| |------------13:8--------------|
  S S S S  S S S S S  S S S S S  S S S  S S  S  S S  S  S S  S
|-9p8p6h9-13p9p8p6h9-13p9p8p6----------------------------------|
|-----------------------------9-13p6---------------------------|
|------------------------------------9-13p6h10-----------------|
|----------------------------------------------13p6h10---------|
|------------------------------------------------------13p6h10p|
|--------------------------------------------------------------|


                            ~
  E    +E  +E  E E    +S  S Q
|-------------------------------|
|-------------------------------|
|----------------8b10r(8)p6-8---|
|-------------------------------|
|-6b8==(6)r(6)-8----------------|
|-------------------------------|


   ~~~~PM--|                 ~~~~~~~~
       |-3-| |-3--|
  +E   S S S E E  E  a  E S  Q   +S
|------------6-8-11-11s13-9-11--(11)-|
|----------6-------------------------|
|-(8)\---6---------------------------|
|------8-----------------------------|
|------------------------------------|
|------------------------------------|


        |--3--|  |------6-------|  |----------9:8----------|
    E   S  S  S  S  S  S  S  S  S  S  S  S  S  S  S  S  S  S
|------------------------------------------------------------||
|---------------------------------------------------15h16h18-||
|------------------------------------------15h16h18----------||
|---------------15h16h18----------15h16h18-------------------||
|------15h16h18----------15h16h18----------------------------||
|-(16)-------------------------------------------------------||


 Synth. Solo
   S  S  Q.            H
|-15h16p15------------15-----------------|
|----------------------------------------|
|----------------------------------------|
|----------------------------------------|
|----------------------------------------|
|----------------------------------------|
|
| Gtr I
|  E     S S S  S S S  S S S  S S S  S S
|-------10p7---10p7---12p8---12p8---10p7-|
|------------8------8------8------8------|
|----------------------------------------|
|----------------------------------------|
|----------------------------------------|
|----------------------------------------|


   +W
|-(15)---------------------------------|
|--------------------------------------|
|--------------------------------------|
|--------------------------------------|
|--------------------------------------|
|--------------------------------------|
|
|   S   S S S  S S S S S S S S S S S S
|------10p7---10p7---8p5---8p5---8p5---|
|---8-------8------8-----6-----6-----6-|
|--------------------------------------|
|--------------------------------------|
|--------------------------------------|
|--------------------------------------|


  C5
  Gtr IV all x indicate pick scrapes
  W                                    +Q.             E   Q       Q
  |                                     |              |   |       |
  /                                     /              x   x       x

  Gtr I
  E  S S S  S S S  S S S  S S S  S S    S   S S S  S S S S S S S S S S S S
|---10p7---10p7---12p8---12p8---10p7-|-----10p7---10p7---8p5---8p5---8p5---|
|--------8------8------8------8------|--8-------8------8-----6-----6-----6-|
|------------------------------------|-------------------------------------|
|------------------------------------|-------------------------------------|
|------------------------------------|-------------------------------------|
|------------------------------------|-------------------------------------|


  F5
  W                                +W
  |                                 |
  /                                 /

  E S S S S S S S S S  S S S S S    S  S S S S S S S S S S S S S S S
|---7p3---7p3---8p5---10p7---8p5-|----10p7---8p5---8p5---7p3---7p3---|
|-------3-----3-----6------8-----|--6------8-----6-----6-----3-----3-|
|--------------------------------|-----------------------------------|
|--------------------------------|-----------------------------------|
|--------------------------------|-----------------------------------|
|--------------------------------|-----------------------------------|


  G5
  W                               +Q.            E   E    Q.
  |                                |             |   |    |
  /                                /             x   x    x

  E S S S S S S S S S S S S S S    S  S S S  S S S S S S  S S S S S S
|---5p1---5p1---7p3---5p1---7p3-|-----8p5---10p7---8p5---10p7---8p5---|
|-------1-----1-----3-----1-----|--3------6------8-----6------8-----6-|
|-------------------------------|-------------------------------------|
|-------------------------------|-------------------------------------|
|-------------------------------|-------------------------------------|
|-------------------------------|-------------------------------------|


  Bb5
  W
  |
  /

             T         T  T             T  T          T
    |--3--|      |--3--|  |------6------|  |-3--|
  E S  S  S  S S S  S  S  S  S  S S  S  S  S  S S  S  S
|-------------------------------------------------------|
|---8h13-15-20---8h13-15-20p15p13p8h13-15-20p15p8h13-15-|
|-------------------------------------------------------|
|-------------------------------------------------------|
|-------------------------------------------------------|
|-------------------------------------------------------|


  +H.                                           Q
   |                                            |
   /                                            x

   T             T  T          T  T          T  T
   |------6------|       |--3--|       |--3--|  |--3--|
   S  S  S S  S  S  S  S S  S  S  S  S S  S  S  S  S  S S S
|-------------------------------------------------------------|
|-20p15p13p8h13-15-20p15p8h13-15-20p15p8h13-15-20p15p13p8-----|
|-------------------------------------------------------------|
|-------------------------------------------------------------|
|-------------------------------------------------------------|
|-------------------------------------------------------------|


  A5
  W
  |
  /

          T  T          T  T             T  T          T
    |--3--|       |--3--|  |--3--| |--3--|  |-3--|
  E S  S  S  S  S S  S  S  S  S  S S  S  S  S  S S  S  S
|--------------------------------------------------------|
|---8h13-15-20p15p8h13-15-20p15p13p8h13-15-20p15p8h13-15-|
|--------------------------------------------------------|
|--------------------------------------------------------|
|--------------------------------------------------------|
|--------------------------------------------------------|


  +H                           Q                Q
   |                           |
   /                           x

   T          T  T          T  T             T  T       T
        |--3--|       |--3--|  |------6------|
   S  S S  S  S  S  S S  S  S  S  S  S S  S  S  S  S S  T  T
|--------------------------------------------------------------|
|-20p15p8h13-15-20p15p8h13-15-20p15p13p8h13-15-20p15p8-15p13---|
|--------------------------------------------------------------|
|--------------------------------------------------------------|
|--------------------------------------------------------------|
|--------------------------------------------------------------|


  Ab5
  W
  |
  /

          T  T          T  T          T  T         T
    |--3--|       |--3--|       |--3--|
  E S  S  S  S  S S  S  S  S  S S  S  S  S  T  S.  S
|----------------------------------------------------|
|---8h13-15-20p15p8h13-15-20p15p8h13-15-20p15p13--15-|
|----------------------------------------------------|
|----------------------------------------------------|
|----------------------------------------------------|
|----------------------------------------------------|


  +W
   |
   /

   T             T  T             T  T
   |---------9:8----------| |--3--|  |--3--|
   S  S  S S  S  S  S  S  S E  E  E  E  E  E
|---------------------------------------------|
|-20p15p13p8h13-15-20p15p13p8h13-15-20p15p13--|
|---------------------------------------------|
|---------------------------------------------|
|---------------------------------------------|
|---------------------------------------------|


  G5                               C5
  W               +W               W                 +W
  |                |               |                  |
  /                /               /                  /

  |-3-| |-3-|      |-3-| |-3-|
  Q Q Q Q Q Q      Q Q Q Q Q Q     Q.   E +E  Q.     +W
|---------------|----------------|-----------------|--------||
|---------------|----8-----------|-----------------|--------||
|---5-7-9-5-7---|--9---5-9-5-7---|-7----9-(9)-5----|-(5)----||
|---------------|----------------|-----------------|--------||
|---------------|----------------|-----------------|--------||
|---------------|----------------|-----------------|--------||


    Gtr I Rhy Fig 1 x2


 Out-chorus with Rhy Fig 1 x3
  Gtr V
      PM----------------|    PM-----------
  Q   E E E  E E E    E E E  E E  E E  E
|------------------|---------------------|
|------------------|---------------------|
|------------------|---------------------|
|------------------|---------------------|
|-----3-3-3--3-3-3-|--3-3----3-3--3-3--3-|
|------------------|---------------------|



 -----------------------------------------------|
    E  E  E E E  E E  E     E   E E  E   E  E E E
|-----------------------|-------------------------|
|-----------------------|-------------------------|
|-----------------------|-------------------------|
|-----------------------|-------------------------|
|---3--3--3-3-3--3-3--3-|---3---------------------|
|-----------------------|-------1-1--3---3--3-3-3-|



  PM---------------------------------------
  E E  E E E  E E E    E E E  E E  E E  E
|-------------------|---------------------|
|-------------------|---------------------|
|-5-5--5-5-5--5-5-5-|--5-5-5--5-5--5-5--5-|
|-------------------|---------------------|
|-------------------|---------------------|
|-------------------|---------------------|



 -------------------------|                 PM--|
    E  E  E E E  E E  E     E   E E  E  +E  E E E
|-----------------------|-------------------------|
|-----------------------|-------8----8--(8)-------|
|---5--5--5-5-5--5-5--5-|---5---5----5--(5)-------|
|-----------------------|-------------------5-5-5-|
|-----------------------|-------------------------|
|-----------------------|-------------------------|



  PM---------------------------------------
  E E  E E E  E E E    E E E  E E  E E  E
|-------------------|---------------------|
|-------------------|---------------------|
|---5--5-5-4--4-5-2-|--2-2-5--5-4--4-5----|
|-------------------|-------------------5-|
|-3-----------------|---------------------|
|-------------------|---------------------|



 -------------------------|
    E  E  E E E  E E  E     E   E E  E  +E  E E E
|-----------------------|-------------------------|
|-----------------------|-------8----8--(8)-8-8-8-|
|---------5-5-5--5-5--5-|---5---5----5--(5)-5-5-5-|
|---5--5----------------|-------------------------|
|-----------------------|-------------------------|
|-----------------------|-------------------------|



    PM------------------------------------
  E E  E E E  E E E    E E E  E E E  E E
|-------------------|--------------------|
|-------------------|--------------------|
|---5--5-5-5--5-5-5-|--5-5-5--5-5-5--5-5-|
|-------------------|--------------------|
|-------------------|--------------------|
|-------------------|--------------------|
|
| Q    E E E  E E E    E E E  E E E  Q
|-----20-----20-----|-20-----20-----15---|
|-----22-----22-----|-22-----22-----17---|
|-----22-----22-----|-22-----22-----17---|
|-------------------|--------------------|
|-------------------|--------------------|
|-------------------|--------------------|


 -------------------------|
    E  E  E E E  E E  E     E   Q   E  +H
|-----------------------|---------------------|
|-----------------------|-------8---8--(8)----|
|---5--5--5-5-5--5-5--5-|---5---5---5--(5)----|
|-----------------------|---------------------|
|-----------------------|---------------------|
|-----------------------|---------------------|
|
|  +E  E  E E E  E E  E    +E   Q   E  +H
|-(15)------------------|---------------------|
|-(17)---13-----10---10-|-(10)--8---8--(8)----|
|-(17)---14-----10---10-|-(10)--9---7--(7)----|
|--------15-----10---10-|-(10)-10--10-(10)----|
|-----------------------|---------------------|
|-----------------------|---------------------|

with Rhy Fig 1
    PM-------------------------------------
  E E  E E E  E E E    E E E  E E  E E  E
|-------------------|---------------------|
|-------------------|---------------------|
|---5--5-5-4--4-5-2-|--2-2-5--5-4--4-5----|
|-------------------|-------------------5-|
|-------------------|---------------------|
|-------------------|---------------------|



 -------------------------|
    E  E  E E E  E E  E     E   E E  E  +E  E E E
|-----------------------|-------------------------|
|-----------------------|-------8----8--(8)-8-8-8-|
|---------5-5-5--5-5--5-|---5---5----5--(5)-5-5-5-|
|---5--5----------------|-------------------------|
|-----------------------|-------------------------|
|-----------------------|-------------------------|



    PM------------------------------------
  E E  E E E  E E E    E E E  E E E  E E
|-------------------|--------------------|
|-------------------|--------------------|
|---5--5-5-5--5-5-5-|--5-5-5--5-5-5--5-5-|
|-------------------|--------------------|
|-------------------|--------------------|
|-------------------|--------------------|
|
| Q    E E E  E E E    E E E  E E E  Q
|-----20-----20-----|-20-----20-----15---|
|-----22-----22-----|-22-----22-----17---|
|-----22-----22-----|-22-----22-----17---|
|-------------------|--------------------|
|-------------------|--------------------|
|-------------------|--------------------|


 -------------------------|
    E  E  E E E  E E  E     E   E E  E  +E  E E E
|-----------------------|-------------------------*|
|-----------------------|-------8----8--(8)-8-8-8-*|
|---5--5--5-5-5--5-5--5-|---5---5----5--(5)-5-5-5-*|
|-----------------------|-------------------------*|
|-----------------------|-------------------------*|
|-----------------------|-------------------------*|
|
|  +E  E  E E E  E E  E    +E   Q    E  +H
|-(15)------------------|-------------------------*|
|-(17)---13-----10---10-|-(10)--8----8--(8)-------*|
|-(17)---14-----10---10-|-(10)--9----7--(7)-------*|
|--------15-----10---10-|-(10)-10---10-(10)-------*|
|-----------------------|-------------------------*|
|-----------------------|-------------------------*|

E    Esu4   B	    E	   E  B   D	Dsu4  A
--------------------------------|-------------------------|-
-9----10-----7------9------10-7-|-7-----8-----7-----------|-
-9-----9-----8------9-------9-8-|-7-----7-----8-----------|-
-9-----9-----9------9-------9-9-|-7-----7-----9-----7\\\--|-
-7-----7------------7-------7---|-5-----5-----------O\\\--|-
---O-O---O-O---O-O----O-O-------|---O-O---O-O-------------|-
PM (all open E's)				    DB	     (Dive Bomb -
Hit the Twang Stick)
E    Esu4   B	    E      E  B   D     Dsus4 A
--------------------------------|-------------------------|
-9----10-----7------9------10-7-|-7-----8-----7-----------|
-9-----9-----8------9-------9-8-|-7-----7-----8-----------|
-9-----9-----9------9-------9-9-|-7-----7-----9-----####--|
-7-----7------------7-------7---|-5-----5-----------####--|
---O-O---O-O---O-O----O-O-------|---O-O---O-O-------------|
PS	     (Pick-Slide)
Pre-Verse:
C#min		     B/Bsu4   A
|-0---------------------------------------------|-
|-5------------------4-5-4--4\2--2-2------------|-
|-6------------------4-4-4--4\2--2-2------------|-
|-6------------------4-4-4--4\2--2-2--4^h^4~~~~-|-
|-4------4-4-4-4-4-4----------------------------|-
|-----------------------------------------------|-
$				      AH    	    ($ = strum & let ring)

C#min		   B/Bsu4   A  	    B   [---------Riff #1------------]
-4---------------------------------------------O-----O-----5----5-----5-----|
-5--4---4-5--------4-5-4--4\2--2-2---------------4-----4-----4----4-----4---|
-6----6------------4-4-4--4\2--2-2---------4-------4-----4-----4----4-----4-|
-6-----------------4-4-4--4\2--2-2---------4--------------------------------|
-4-----------------------------------O-O-O-2--------------------------------|
----------------------------------------------------------------------------|
[---Harmonics----]

Chorus:
E   A  D  A  D A G        E   A  D  A  D A G        E   A  D  A  D A G
|-------------------------|------------------------|------------------------|
|--------3-X---3----------|--------3-X---3---------|--------3-X---3---------|
|-----2--2-X-2-2-2--------|-----2--2-X-2-2-2-------|-----2--2-X-2-2-2-------|
|-2---2--O-X-2-O-2--------|-2---2--O-X-2-O-2-------|-2---2--O-X-2-O-2-------|
|-2---O----X-O---O--------|-2---O----X-O---O-------|-2---O----X-O---O-------|
|-O-O--------------3/5\3~~|-O-O--------------3/5\3~|-O-O--------------3/5\3~|
(Uh!)		   (Hey yeah!....)		   (Uh Huh!)


-------------------------|
--------3-X---3----------|
-----2--2-X-2-2-2--------|
-2---2--O-X-2-O-2--------|
-2---O----X-O---O--------|
-O-O--------------3/5\3~~|Verse1:
D  E                          E A D                   D   E		   Asu2
|-------------------------------------------------------------------------O---|
|-3-------------------------------5---------------------------------------O---|
|-2-----------------------------9-6-7------------------7-7-9----------O-O-2-\/|
|-O---2-------------------------9-7-7------------------7-7-9----------O-O-2-\/|
|-----2-------------------------7---5------------------5-5-7--------------O---|
|-----O------O-O-O-O-O--------------------(O)-(O)-(O)--------(O)-(O)----------|
Jump Back    What's that sound       Here she comes.....      Hot shoe..   $ PS


Bridge:
F#			   C#min (arpegiate chord)
|-O----------------------|-O---------------|---------------------------|------|
|-O----O-----O-----O-----|-5---------------|---------------------------|------|
|-3------3-----3-----3---|-6---------------|-\-------------------------|-riff-|
|-4--------4-----4-----4-|-6---------------|-\-------------------------|--#1--|
|-4----------------------|-4---------------|----5-------3------------2-|------|
|-2----------------------|-----------------|------6-5~----4-5~--2~-O---|------|
$(Dont you know she...)  $(You lose a....)


Chorus

Verse 2 (basically the same as the first)

Solo:

---------------|-------7-----7-7--------------|-----------------|-------------|
---------------|-----7-------7-7--------------|---H-T-P--H------|-------------|
---------------|-9^F-----9^F------9^F^9^F\~/--|-6-9-11-6-9- %5x-|-9^F^9^F~~~~~|
---------------|------------------------------|-----------------|hold this----|
-3~-O----O-----|------------------------------|-----------------|bend for next|
------3~---3~~-|------------------------------|-----------------|-part -------|
..ah oh)				WB = Whammey Bar     % = repeat
^F = Bend Full Step  H = Hamer-On
T = Tap		     P = Pull-Off


---------------------------------------------------------------------------|
---------T----P----T----P----T----P----T----P----T----P--------------------|
-(9^F~)--14-(9^F)--12-(9^F)--14-(9^F)--16-(9^F)--14-(9^f^9~~)-7-7^WB--7-9-7|
---------------------------------------------------------------------------|
---------------------------------------------------------------------------|
---------------------------------------------------------------------------|


-------------------------------|
-------------------------------|
-7^F-7-----7^F~----------------|
-------9-7------9-8-7----------|
----------------------9-8-7----|
----------------------------10-|

break

|------------------------------------------------------------------|--
|------------------------------------------------------------------|--
|------------------------------------------------------------------|--
|---H--P-----------------H--P------------------H--P----------------|--
|-/9-10-9----7^F^7-----/9-10-9----9~--(9~)---/9-10-9---9~----------|--
|---------10--------7~---------10-----10-------------10---10-10/12-|--



Top Jimmy

--------------------------12--------------------------------------------------7---|
---------------12---------------12----------------------------------7-------------|
-----------12--------12---------------12-------------------------7-------7--------|
-------12------------------------------------12---------------7-------------------|
-------------------------------------------------12--------7----------------------|
-12--------------------------------------------------12---------------------------|


---5---------------------------------------------0-------------------------------|
------5-----7---------------------------12------------12-------------------------|
---------------7--------------------12-------12-----------12---------------------|
------------------7-------------12------------------------------12---------------|
---------------------7------12--------------------------------------12---------7-|
------------------------12----------------------------------------------12--7----|

--------------7-----------------------------------------------------------------------|
-------7----------7-----5-----------------------------12------12----12----------------|
----7------7---------7-----7------7---------------12------12------------12------------|
-7-----------------------------------7--------12----------------------------12--------|
------------------------------7-------------------------------------------------12----|
----------------------------------------12-----------------------------------------12-|

-----------------7--------------------------------------12---0h12--------------------7-|
----------7-------------------------------------12-----------------------------7-------|
-------7-----7--------------------------------------12----------------------7-----7----|
----7---------------------------------------12---------------------------7-------------|
-7---------------------5\3p0--/3--3-0---------------------------------7----------------|
-----------------------5\3p0--/3--3-0---12-------------------------7-------------------|

---------------------------------------12--------------------------------------7----|
-------------------------------12-----------12---------------------------7----------|
-----------------------------------12-----------12--------------------------7-------|
---------------------------12-------------------------12--------------7-------------|
-5\3--0-/3--3--0------------------------------------------12--------7---------------|
-5\3--0-/3--3--0---12--12-------------------------------------12--7-----------------|

----------------------------------12----------------------------------------7------|
---------------------------12-----------12-------------------------7---------------|
------------------12-----------12------------12-----12----------7-------7----------|
------------------12-----------------------------------------7---------------------|
-5\3--0-/3--3--0-----12-----------------------------------7------------------------|
-5\3--0-/3--3--0--------12---------------------------------------------------------|


-------------------------------------------------------------|
--------------------5p4-----5p4---5p4\3---3p2---3p2---3p2----|
----------------5---5p4h5---5p4---5p4\3---3p2---3p2---3p2p0--|
-5--3----3/5\3--5---5p4h5---5p4---5p4\3---3p2---3p2---3p2p0--|
-5--3----3/5\3--5--------------------------------------------|
-5--3p0--3/5\3--5--------------------------------------------|


main verse riff
------------------------------------------------------------------------------------|
-7-------7-----6-------------6--6------------------5---5--5--------------4----------|
-7-------7-----5-------------5--5------------------5---5--5-------------------------|
-7-------7-----7-------------7--7--------5---5--5------------0----3h5--5---3p0--3---|
---5-5-----5-5---5--5-5-5-5--------5--5---------------------------------------------|
------------------------------------------------------------------------------------|


-----------------|
-3--3---3--------|
-3--3---3--------|
-----------3p0---|
-----------------|
-----------------|




Drop Dead Legs:


---|------------------|-----------O----------------------|-----------------|-
---|--2-----2-------2-|-3-------5---------3--------------|-2-----2-------2-|-
-2-|.---2-------2-----|-2-----------4-------2----2------.|---2-------2-----|-
-2-|.-----2-------2---|-4---4/6-------6\4-----4--2--1/2-.|-----2-------2---|-
-O-|------------------|-O------------------------O-------|-----------------|-
---|------------------|----------------------------------|-----------------|-

   < swell                               Funky Bend
---|------------------|----------------------------|----------------------|-
---|-1--------2-------|----------------------------|----------------------|-
---|-2----------2-----|.-7-------------------------|-5-5------------------|-
---|--------------2---|.-7-------------------------|-5-5----------O-5-4~--|-
---|----------------4-|--5---------O-2--3^5^3^5^3--|-3-3----O-2-3---------|-
---|------------------|----------------------------|----------------------|-


---|------------------|
---|------------------|
---|-5-5-----------2-.|
---|-5-5-----------2-.|
---|-2-2---O-2-3~--O--|
---|------------------|


The Choruses are something like the into:

  You know that you want it....                                  etc...
----             -------           -------          -------      ----
----             ---3---           ---5---          ---3---      ----
-2--             ---2---           ---4---          ---2---      -2--
-2--             ---4---           ---6---          ---4---      -2--
-O--             ---O---           ---O---          ---O---      -O--
----             -------           -------          -------      ----

Then there's that break thing with this awesome run...

B B B B   D D D D

-------------------------------------------------------------------------
-------------------------------------------------------------------------
--------H-H-------------H-H-------------H-H----------H-H----3--5-5--7-7--
--H-H--1-3-5------H-H--3-5-7------H-H--5-6-8--H-H---6-8-10--3--5-5--7-7--
-1-3-5-------3---3-5-7-------5---5-6-8-------6-8-10---------1--3-3--5-5--
-------------------------------------------------------------------------


Then the outro rythmn goes something like this: (palm muted)

---------------------------------------------|
---------------------------------------------|
--------------------------------------------.|
----H-P--O----H----------H-P--------H-H-----.|
---O-2-O-----O-2-3------O-2-O-3~---O-2-3---|
-2---------2-------2--2----------2-------2---|



Hot for teacher


E ---------------------------------------------------------|
B ---------------------------------------------------------|
G ---------------------------------------------------------|
D ---------------------------------------------------------|
A -X\--0^3^7-12^7^3^0^3^7-12-7-3-0-3-7-12-7-3-0-3-7-12-7-3-|
E ---------------------------------------------------------|

         +            +            +            +
E ---------------------------------------------------|
B ---------------------------------------------------|
G ---------------------------------------------------|
D ---------------------------------------------------|
A -0-5-9-12-9-5-0-5-9-12-9-5-0-5-9-12-9-5-0-5-9-12-9-|
E ---------------------------------------------------|

   +        +            +            +            +
E --------------------------------------------------------|
B --------------------------------------------------------|
G --------------------------------------------------------|
D -12-0-3-7-12-7-3-0-3-7-12-7-3-0-3-7-12-7-3-0-3-7-12-7-3-|
A --------------------------------------------------------|
E --------------------------------------------------------|

        +            +            +
E ---------------------------------------|
B ---------------------------------------|
G ---------------------------------------|
D -0-5-9-12-9-5-0-5-9-12-9-5-0-5-9-12-9~-|
A ---------------------------------------|
E ---------------------------------------|
   +      +            +            +            +            +            +
E ----------------------------------------------------------------------------|
B ----------------------------------------------------------------------------|
G -12-3-7-12-7-3-0-3-7-12-7-3-0-5-9-12-9-5-0-5-9-12-9-5-0-3-7-12-7-3-0-3-7-12-|
D ----------------------------------------------------------------------------|
A ----------------------------------------------------------------------------|
E ----------------------------------------------------------------------------|
             +
E -----------------|
B -----------------|
G -7-3-0-5-9-12-9~-|
D -----------------|
A -----------------|
E -----------------|

   +      +          +          +          +
E -12-5-8-12-8-7-5---------------------------------------------------------|
B -----------------8-12-8-7-5----------------------------------------------|
G ----------------------------8-12-8-7-5---------------------2-------------|
D ---------------------------------------8-12-8-7-5----------2-------------|
A ---------------------------------------------------8-7-5-0-0-------------|
E -------------------------------------------------------------------------|

E -------------------------------------------------------------------------|
B -------------------------------------------------------------------------|
G ----------------5--4-------1--2--1-/2--1/2-------------------------------|
D ----------------5--4-------1--2--1-/2--1/2-------------------------------|
A -------------------------------------------------------------------------|
E -2-2--2-2--2-2-----------2-------------------2-2--2-2--2-2--2-2--2-2--2/-|

E ---------------------------------------------------------------------------|
B ---------------------------------------------------------------------------|
G -10\--7--4---1--2--1/2----------------------------5--4-4-------1--2--1-/2--|
D -10\--7--4---1--2--1/2----------------------------5--4-4-------1--2--1-/2--|
A ---------------------------------------------------------------------------|
E -------------------------2--2-2--2-2--2-2--2-2--2-----------2--------------|

E ---------------|
B ---------------|
G -4--4---4----5-|
D -4--4---4----2-|
A -4--4---4----0-|
E -0--0---0------|


Main riff (clean):

E -----------------------------------------------------|
B -----------------------------------------------------|
G -5---5^2---2---5---5^2-2---5^2-----------5--8\7---2--|
D -2---2-----2---2---2---2---2-------------5--8\7---2--|
A ---------------------------------0^5^6^7-------------|
E -----------------------------------------------------|
  
E ---------------------------------------|
B ---------------------------------------|
G -5---5^2---2---5---5^2-2---5---5^2---0-|
D -2---2-----2---2---2---2---2---2-----0-|
A ---------------------------------------|
E ---------------------------------------|
                                      "Ohhhh !"


Main riff (distorted):

E ------------------------------------------------|
B ------------------------------------------------|
G -2----------2----------2-----------------5--8\7-|
D -2----------2----------2-----------------5--8\7-|
A -0---3-3-0--0---3-3-0--0---3-0---0^5^6^7--------|
E ------------------------------------------------|



E ------------------------------------------------------------------------------|
B --------------------------------------------8--7--5---------------------------|
G -2----------2----------2-----------------5--8--7--5--7------------------------|
D -2----------2----------2-----------------5--8--7--5--7------------------------|
A -0---3-3-0--0---3-3-0--0---------0-5^6^7--------------------------------------|
E ------------------------------------------------------------------------------|

  
E -------------------------------------------------------------------------10-|
B ----------------------------------------------------------12--10----12-x-10-|
G -------------------------13--12--10--12-------------------12--10----12-x-10-|
D -------------------------13--12--10--12-------------------12--10----12-x----|
A ---X\-----------------------------------------------------------------------|
E ----------------------------------------------------------------------------|

  


E ----------------------------------------------------------------------|
B -12-x-12\-----------------------10------9-------8---7---6---5---4---5-|
G -12-x-12\---------------10------9-------8-------7---6---5---4---3---4-|
D -12-x-12\-----------8---8---7---7---6---6---5---5---4---3---2---1---2-|
A ----------------------------------------------------------------------|
E ----------------------------------------------------------------------|


(

E ---------------------------------------------------------------------------|
B ------------------------------------------8--7--5--------------------------|
G -2---------2---------2-----------------5--8--7--5--7----------<7><7>-------|
D -2---------2---------2-----------------5--8--7--5--7-----------------<7>---|
A -0---3-3-0-0---3-3-0-0---------0-5^6^7-------------------------------------|
E ---------------------------------------------------------------------------|

   E --------------------------------------------------------------------10------|
B ------<7>----------------13--12--10--12-----------------------------10---12-|
G --<7>---------<7>--------13--12--10--12-----------------------------10---12-|
D ----------<7>------------13--12--10--12----------------------------------12-|
A ------------------------------------------------------X\--------------------|
E ----------------------------------------------------------------------------|

              

E ---10------------------------------------------------------------------|
B -x-10---12\--------------11------10------9-------8---7---6---5---4---5-|
G -x-10---12\--------------10------9-------8-------7---6---5---4---3---4-|
D -x------12\----------8---8---7---7---6---6---5---5---4---3---2---1---2-|
A -----------------------------------------------------------------------|
E -----------------------------------------------------------------------|

                                                   




   +      +          +          +          +
E -12-5---12-8-7-5-------------------------------------------|
B ------8----------8-12-8-7-5--------------------------------|
G ----------------------------8-12-8-7-5---------------------|
D ---------------------------------------8-12-8-7-5----------|
A ---------------------------------------------------8-7-5-0-|
E -----------------------------------------------------------|
        ^ I think he hit a wrong note here

Solo:

E -----------------------------------------------------|
B -----------------------------------------------------|
G -4(b)6~----2^4///-6///-9///-11///-13///-14///--14w~\-|
D -----------------------------------------------------|
A -----------------------------------------------------|
E -----------------------------------------------------|

E /14---------14----------------------14--------------------------------------|
B ----17(b)19----14^17^14-14-14^17^14----14^17^14---------14------------------|
G ------------------------------------------------16(b)18----16(b)18-16-14-16-|
D ----------------------------------------------------------------------------|
A ----------------------------------------------------------------------------|
E ----------------------------------------------------------------------------|

            
E ------------------------------------------2------2-2-----------------------|
B -14-------------------------------------2---5^2------5^2--5-5^2^0--5-5^2^0-|
G ----16w~\----2--2--2(b)3--2----2-4--(b)6-----------------------------------|
D -----------------------------4---------------------------------------------|
A ---------------------------------------------------------------------------|
E ---------------------------------------------------------------------------|

E ---------------------------------2--------2----------------------|
B -5-5^2^0--5-5^2^0--5-5^2^0--5(7)---5^2----2---2------------------|
G ---------------------------------------5--------4-2--4-2---2w~/\-|
D ---------------------------------------------------------4-------|
A -----------------------------------------------------------------|
E -----------------------------------------------------------------|

E -------------------------------------------14--14-------14-----14--16^14-|
B ------------------------------14--17--17(b)19-----(b)19---(b)19----------|
G -2~-4--5--6~---9--11--13--14---------------------------------------------|
D -------------------------------------------------------------------------|
A -------------------------------------------------------------------------|
E -------------------------------------------------------------------------|

E -17^14--19^14----17^14----17--16--17--16^17^16-14----14-------------|
B --------------14------14--------------------------17----17--17(b)19-|
G --------------------------------------------------------------------|
D --------------------------------------------------------------------|
A --------------------------------------------------------------------|
E --------------------------------------------------------------------|

E--------------------14--------------------------------------------------------|
B -------------------14-17^14--------------------------------------------------|
G -14^17^14--16(b)18----------16(b)18---16(b)18-(b)18-16-16-14-16---16-16-14~\-|
D -----------------------------------------------------------------------------|
A -----------------------------------------------------------------------------|
E -----------------------------------------------------------------------------|

E -------2----------------------------------------------------------------|
B -------2---------2------------5--------7--------------------------------|
G -2(b)4---(b)4^2----2---4(b)6--7(b)9----9(b)11w~-----------------------5-|
D ---------------------------------------------------2---2----2---2-----2-|
A -------------------------------------------------\-2---2----2---2-----0-|
E -------------------------------------------------\-0---0----0---0-------|



E -----------------|
B -11--12--13--14\-|
G -11--12--13--14\-|
D -11--12--13--14\-|
A -----------------|
E -----------------|
                      

E ------------------------------------------------------------------------------|
B -------------------3----------------------------------------------------------|
G -------------------0///--2///--4///-5///--7///-/12///-14///-16///-17///-19///-|
D -14///-------------0----------------------------------------------------------|
A --------------X\--------------------------------------------------------------|
E ------------------------------------------------------------------------------|
         
                    
E ----------------------------------------------------------------------------|
B --------------------------------------------2///-----5///--7///-/14///------|
G -/21///(b)24///w~\--/18-/18-/18-/18-/18-----2///-----5///--7///-/14///----2-|
D --------------------------------------------2///-----5///--7///-/14///----2-|
A -----------------------------------------\--0///--------------------------0-|
E ----------------------------------------------------------------------------|





I'll Wait:



e|--------------------------------------------------------17--15--15-17-13-|
B|---------10--10-8--8-10-6---------6-5---5--3------------17--15--15-15-13-|
G|----------9---9-7--7-7--5---------5-4---4--2-----------------------------|
D|---------------------------7p5-3------5----5---15h16h17------------------|
A|-5h6h7-------------------------------------------------------------------|
E|-------------------------------------------------------------------------|

e|-----------13--12-12--10-------------------------------------------------|
B|-----------13--13-13--11-------------------------------------------------|
G|-14p1210~----------------------------------------------------------------|
D|-------------------------------------------------------------------------|
A|-------------------------------------------------------------------------|
E|-------------------------------------------------------------------------|


e|---------------------------------------------------------|
B|---------10--10-8--8-10-6---------6-5---5--3-------------|
G|----------9---9-7--7-7--5---------5-4---4--2-letring-----|
D|---------------------------7p5-3------5----5-------------|
A|-5h6h7---------------------------------------------------|
E|---------------------------------------------------------|

pre Kick in: (play twice)
(if you want the thumping sound just before it, 5th fret a string.
e|------------------------------------------------------------------------|
B|-5---6--8-8-10--7-6-----------------------------------------------------|
G|-4---5--7-7--7--7-6-----------------------------------------------------|
D|------------------------------------------------------------------------|
A|------------------------------------------------------------------------|
E|------------------------------------------------------------------------|

Kick in (also doubles as chorus).
e|---------------------------------8-8--10-6------------|
B|--------10--8-8--6---------10--8-8-8---8-6------------|
G|---------9--7-7--5----------9--7----------------------|
D|--5h7h9-------------5h7h9-----------------------------|
A|------------------------------------------------------|
E|------------------------------------------------------|


e|----------------------------------8-10-----------------------|
B|--------10--8-8--6---------10--8--8--8-----------------------|
G|---------9--7-7--5----------9--7-----------------------------|
D|--5h7h9-------------5h7h9------------------------------------|
A|-------------------------------------------------------------|
E|-------------------------------------------------------------|

Verse: (x4)
The part on the d string is actually bass but you might
As well play it, because you ARE playing the keyboard for guitar.
e|---------------------------------------------------------------|
B|--10-8---8-6-6-5-2---------------------------------------------|
G|---9-7---7-5-5-4-2---------------------------------------------|
D|---------------------5-5-7-7-10-10-12--------------------------|
A|---------------------------------------------------------------|
E|---------------------------------------------------------------|

Chorus:
e|---------------------------------8-8--10-6---------------------|
B|--------10--8-8--6---------10--8-8-8---8-6---------------------|
G|---------9--7-7--5----------9--7-------------------------------|
D|--5h7h9-------------5h7h9--------------------------------------|
A|---------------------------------------------------------------|
E|---------------------------------------------------------------|

e|----------------------------------8-10-----------------------|
B|--------10--8-8--6---------10--8--8--8-----------------------|
G|---------9--7-7--5----------9--7-----------------------------|
D|--5h7h9-------------5h7h9------------------------------------|
A|-------------------------------------------------------------|
E|-------------------------------------------------------------|

Go back to verse (x3) then to chorus again..

Pre solo: (x2)

e|----------------------------------------------------------------------------|
B|------------6-5--8-6--10-8-10-8-8-6-6---------------------------------------|
G|-777777ect--5-4--7-5---9-7--9-7-7-5-5---------------------------------------|
D|----------------------------------------------------------------------------|
A|----------------------------------------------------------------------------|
E|----------------------------------------------------------------------------|

Solo:
e|---------------------------------------------------------------|
B|--15-15-15wbwbw\-15-15-15wbwbw\-15-15-15wbwbw\-15-15-----------|
G|---------------------------------------------------------------|
D|--------------------------------------------------------15b----|
A|---------------------------------------------------------------|
E|---------------------------------------------------------------|


e|----------------------------------------/19btr---12-12br-10-12-10---10~-|
B|-------------------------8b-----------------------15--------------10----|
G|-------7-7-7b----7-10-12----10-5----------------------------------------|
D|-10-10--------10-----------------5~-------------------------------------|
A|-----------------------------------/7\/9\-------------------------------|
E|------------------------------------------------------------------------|


e|--------------------------------------------------------16trbr-16b-18b-16b-|
B|-17b17p15------/18-16-18-18-16h18p16---------14h16-14-16~------------------|
G|-----------14~----------------------16h18p16-------------------------------|
D|---------------------------------------------------------------------------|
A|---------------------------------------------------------------------------|
E|---------------------------------------------------------------------------|

e|-16trbr-16-18b-14b-------------------------------------11h12h13----------|
B|------------------------------------------------11h12h13-----------------|
G|-----------------------------------------11h12h13------------------------|
D|----------------------------------11h12h13-------------------------------|
A|---------------------------11h12h13--------------------------------------|
E|--------------------11h12h13---------------------------------------------|


e|---------------------------------------------------------------|
B|-------------17-15-10~-15-13-8~--------------------------------|
G|---------------------------------------------------------------|
D|---------------------------------------------------------------|
A|---------------------------------------------------------------|
E|-9p5-9p5-9p5---------------------------------------------------|



Girl Gone Bad



**all tap harmonics**

E|-------0-----------------0-------|
B|-----1---1-------------0---1-----|
G|---2-------2---------2-------2---|
D|-3-----------3-----2-------------|
A|-----------------0---------------|
E|---------------------------------|

E|-0-----------------------------------------------0-----|
B|-1--------------------------0------------------0---0---|
G|-2--------------------------2----------------2-------2-|
D|----------------------------2--------------2-----------|
A|----0--0--0--0-0-0--0--0--0-----0--0--0--0-------------|
E|-------------------------------------------------------|

E|---------0-----------------5--------------------------|
B|-------1----1-------1----4---4-----1------------------|
G|-----2--------2---2----6-------6---2------------------|
D|---3------------3----------------7-3------------------|
A|-0------------------------------------0--0--0--0-0-0--|
E|------------------------------------------------------|

E|----------------0--------|
B|--------------4---4------|
G|------------6-------6----|
D|----------7-----------7--|
A|-0--0--0-----------------|
E|-------------------------|

INTRO PART 2:

**normal**

E|-------------------------------------------------------------|
B|-7---------------------------7-7-8---------------------------|
G|-8---------------------------8-8-9---------------------------|
D|-9---------------------------9-9-10--------------------------|
A|----0--0--0--0-0-0--0--0--0----------0--0--0--0-0-0--0--0--0-|
E|-------------------------------------------------------------|

E|---------------------------------------------------------|
B|-8--8--8--10-10-12-12-10-10-10-13-12-8--10-10-12-12-10---|
G|-9--9--9--11-11-12-12-11-11-11-12-12-9--11-11-12-12-11---|
D|-10-10-10-12-12-12-12-12-12-12-12-12-10-12-12-12-12-12---|
A|---------------------------------------------------------|
E|---------------------------------------------------------|

E|----------------------------------------------------|
B|--------------------------------------------8-10----|
G|--------------------------------7-9--7-9-10---------|
D|------------------5-7----7-9-10---------------------|
A|-------5-7--5-7-8-----------------------------------|
E|-5-7-8----------------------------------------------|

E|--------------------------|
B|----------1p0---0---------|
G|-2--2--2------2---2p0-----|
D|----------------------3p2-|
A|--------------------------|
E|--------------------------|

E|----0----------0------------0----------0---------|
B|----0----------0------------0----------0---------|
G|-2--2---2-2-5--5-----5-5-2--2---2-2-5--5-----5-5-|
D|-2--2---2-2-3--3-----3-3-2--2---2-2-3--3-----3-3-|
A|-0--0---0-0-0--0---0-----0--0---0-0-0--0---0-----|
E|-------------------------------------------------|

E|-----------------------------------------------|
B|-----------------------------------------------|
G|-2---------------------------------------------|
D|-2---------------------------------------------|
A|-0------0-0--0-----0-0----0-----0-0----0--0----|
E|----4b---------4b------4b---4b------4b------4b-|

E|------------------------------------------------------------|
B|------------------------------------------------------------|
G|-5------------------------T-----T-----T-------T-----T-------|
D|-3------------------------9p7p5-9p7p5-9p7p5h7-7/17--9p7brp5-|
A|-0------0-0--0-----0-0--------------------------------------|
E|----4b---------4b------4b-----------------------------------|

E|-----------------------------------------------|
B|-----------------------------------------------|
G|-2---------------------------------------------|
D|-2---------------------------------------------|
A|-0------0-0--0-----0-0----0-----0-0----0--0----|
E|----4b---------4b------4b---4b------4b------4b-|

E|-------------------------------------------|
B|----------------------------hold-----------|
G|-5------------------------7b-*7r*-----*7b*-|
D|-3--------------------------------*7*------|
A|-0------0-0--0-----0-0---------------------|
E|----4b---------4b------4b------------------|

VERSE:

E|---------------5----------------------------|
B|---------------5----------------------------|
G|-9--x-x-7---5-----5---5--x-5/7--/5--/73-----|
D|-7--x-x-5---3-----3---3--x-3/5--/5--/73-----|
A|--------------------------------------------|
E|--------------------------------------------|

E|---------------5---------------|
B|---------------5---------------|
G|-5--x-x-7---5-----7---1--1/3---|
D|-3--x-x-5---3-----5---1--1/3---|
A|-------------------------------|
E|-------------------------------|

E|---------------------------|
B|-15-14-13-12-11-10-9-8-7-6-|
G|-14-14-12-12-10-10-8-8-6-6-|
D|---------------------------|
A|---------------------------|
E|---------------------------|

CHORUS #1:

E|-----------------------------------------------|
B|-----------------------------------------------|
G|-2---------------------------------------------|
D|-2---------------------------------------------|
A|-0------0-0--0-----0-0----0-----0-0----0--0----|
E|----4b---------4b------4b---4b------4b------4b-|

E|---------------------------------------------------|
B|---------------------------------------------------|
G|-5----------------------------<5>---------<7>-<12>-|
D|-3------------------------<5>-----<5>-<7>----------|
A|-0------0-0--0-----0-0-----------------------------|
E|----4b---------4b------4b--------------------------|

E|-----------------------------------------------|
B|-----------------------------------------------|
G|-2---------------------------------------------|
D|-2---------------------------------------------|
A|-0------0-0--0-----0-0----0-----0-0----0--0----|
E|----4b---------4b------4b---4b------4b------4b-|

E|--------------------------|
B|--------------------------|
G|-5------------------------|
D|-3------------------------|
A|-0------0-0--0-----0-0----|
E|----4b---------4b------4b-|

E|------------------------------------------------------|
B|-T-----T-----T-----T------T------T------T------T------|
G|-8p7p5-8p7p5-8p7p5-10p7p5-10p7p5-10p7p5-12p7p5-12/x-5-|
D|------------------------------------------------------|
A|------------------------------------------------------|
E|------------------------------------------------------|

Now repeat the verse (simile) before going on to:

CHORUS #2:

E|-----------------------------------------------|
B|-----------------------------------------------|
G|-2---------------------------------------------|
D|-2---------------------------------------------|
A|-0------0-0--0-----0-0----0-----0-0----0--0----|
E|----4b---------4b------4b---4b------4b------4b-|

E|-----------------------------------------------------|
B|-----------------------------------------------------|
G|-5---------------------------------------------------|
D|-3---------------------------------------------------|
A|-0------0-0--0-----0-0----0----0----0----0----0------|
E|----4b---------4b------4b---4b---3b---2b---1b---1b-0-|

INTERLUDE #1:

E|----------------------------------<12>-----|
B|---------1-3/5-3-5/6---6/8---8/10-<12>-----|
G|---------------------5-----7------<12>-----|
D|-----2---------------------------------x---|
A|---2---3-------------------------------x---|
E|-0-------------------------------------x---|

E|-----------------------------3------------------------3--------|
B|-----------------------3-2---0------------------3-2---0--------|
G|-2------2------2-------2-2-2-0---2------2-------2-2-2-0--------|
D|-2------2------2-/x-------2-0---2------2-/x-------2-0----------|
A|-0-0----0-0----0-/x-------0-2---0-0----0-/x-------0-2----------|
E|-----4b-----4b---/x---------3-------4b---/x---------3---10-----|

E|-----------------------------------------------------------|
B|------------------------------------#--#--#----------------|
G|-----------------------------7-6b-7-7-/9-/11-11/12--14~----|
D|-----4-3b-4--x-x-4-3b-4--4---------------------------------|
A|---------------------------5-------------------------------|
E|-x-2-------------------------------------------------------|

E|------------------------------------------------------------|
B|---------------------------------------7p3p0-6p3p0-5p3p0-3~-|
G|--------------------------------7-6b-7----------------------|
D|-----4-3b-4--x-4--x-3b-4------------------------------------|
A|--------------------------x-5-5-----------------------------|
E|-x-2--------------------------------------------------------|

GUITAR SOLO:

E|-------------------------------------------13p10-12p10-|
B|------------#-#-#----------10-13p10-----10-------------|
G|-2--2--4--6-7-9-11-12b-12b----------12b----------------|
D|-2-----------------------------------------------------|
A|-0-----------------------------------------------------|
E|-------------------------------------------------------|

E|---------------------------------------------12brBRBR--|
B|-------------------------------------------------------|
G|----9-10p9----9------------------------#--#------------|
D|-12--------12---12p10----10---------#--10-12-----------|
A|----------------------12----12b-12--12-----------------|
E|-------------------------------------------------------|

the big "B's" represent huge bends using the whammy bar

E|------------------12------17-20-19-17-19-17---------------|
B|-13brbrp10-13brbr------/20-------------------20-20-19-17--|
G|----------------------------------------------------------|
D|----------------------------------------------------------|
A|----------------------------------------------------------|
E|----------------------------------------------------------|

E|-------------------------------------------------------------------------|
B|----17-20p17----17-20p17-------------------------------------------------|
G|-19----------19----------19-19p17----19b-17b-19p17----17h19p17----17-----|
D|----------------------------------19---------------19----------19----19--|
A|-------------------------------------------------------------------------|
E|-------------------------------------------------------------------------|

E|----17br-17------17-17br-17------|
B|-20---------20b-------------20b--|
G|---------------------------------|
D|---------------------------------|
A|---------------------------------|
E|---------------------------------|

E|---------------------------------------------------|
B|------------12-12h13p12----------------------------|
G|-----14p12--------------14-12h14p12----------------|
D|---x--------------------------------14-13h14p13p12-|
A|-x-------------------------------------------------|
E|---------------------------------------------------|

E|---------------------------------#--#-#--#-#---------|
B|--------------------------#--#-#-5-/7-5-/8-7----11---|
G|--------------------------2-/5-4-5-/7-5-/8-7-11-11---|
D|-12--------*12*-----/17------------------------------|
A|----15--15------15-----------------------------------|
E|-----------------------------------------------------|

INTERLUDE #2:

**tap harmonics**

E|-------------------------------------5----------0------|
B|---1-----1-----0-----0-------------5---5----------1----|
G|-----2-----2-----2-----2-----------------5/---2-----2--|
D|-2-----2-----2-----2-----2--4-5------------3-----------|
A|-------------------------------------------------------|
E|-------------------------------------------------------|

E|---------------------------------------0----|
B|---1-----0-----0-1----------5------------1--|
G|-----2-----2-------2------5---5------2------|
D|-2-----2-----2--------4-5-------5-3---------|
A|--------------------------------------------|
E|--------------------------------------------|

E|----------------------------------0----------|
B|--------------------------------1----1-------|
G|-2----------------------------2--------2-----|
D|-2--------------------------3------------3---|
A|----0--0--0--0-0-0--0--0--0------------------|
E|---------------------------------------------|

E|-------0-----------------------------------|
B|-----4---4------1--------------------------|
G|---6-------6----2--------------------------|
D|-7-----------7--3--------------------------|
A|-------------------0--0--0--0-0-0--0--0--0-|
E|-------------------------------------------|

E|-------0-|
B|-----1---|
G|---2-----|
D|-3-------|
A|---------|
E|---------|

normal

E|-------0--------|
B|-----4---4------|
G|---6-------6----|
D|-7-----------7--|
A|----------------|
E|----------------|

E|----------------------0------------0-0---|
B|----------------------0------------0-0---|
G|-2-2-2-2-2--2-2-2-2-2-5------------5-5-2-|
D|-2-2-2-2-2--2-2-2-2-2-3------------3-3-2-|
A|-0-0-0-0-0--0-0-0-0-0-0--0-0-0-0-0-0-0-0-|
E|-----------------------------------------|


house of pain



------------------------------------------------------|
-----5h4-------5h4--2----------------5h4-----------2--|
1h2--5h4--1h2--5h4--2-----------1h2--5h4-----------2--|
1h2--5h4--1h2--5h4--2--x--x--x--1h2--5h4--x--x--x--2--|
------------------------------------------------------|
------------------------------------------------------|

This next part is also played during the chorus.


----------------------------------------------------------------------|
-------------------------------------------------------------------3--|
--------------------2----------------------------------------------0--|
--------------------2----------------------------------------------0--|
--------------------0--0--0--3--4-------------------------------------|
0h2--2--2--2--2--2-----------------0h2--2--2--2--2--2--2--2--2--2-----|


                                    1/2
----------------------------------------t------t------t-------t------|
-----------------------------------/---------------------------------|
--------------------2--------------5--(10)h5--(8)h5--(13)h5--(12)h5--|
--------------------2------------------------------------------------|
--------------------0--0--0--3--4------------------------------------|
0h2--2--2--2--2--2---------------------------------------------------|


repeat that again,then end w/:          the verses:


                                             Say you..   Cause i always..
---------------------------------------|---------------------------------|
---------------------------------------|---------------------------3--2--|
---------------------------------------|---------------------------2--2--|
---------------------------------------|--4------------------------------|
-----------------------------0--5h4h0--|--2-\----------------------------|
0h2--2--2--2--1--1--1--0--0------------|---------------------------------|

                           i always..              Gonna pack..
------------------5--|---------2--|-------------------------------|
3--3--5--5--6--6--6--|------4--3--|-------------------------------|
2--2--4--4--5--5--5--|------4--2--|--7h4-----9~~~------9h7-----7--|
---------------------|------4-----|--7-4--9--9---------9h7--------|
---------------------|------2-----|-------9-----------------9-----|
---------------------|------------|-------------------------------|

----------------------|----------------------------|
----------------------|--4-------------------------|
9h7-----7-------------|--4--2-----2----------------|
-----9-----9-h--7~~~--|--4-----4-----4--3--2-------|
----------------------|----------------------------|
----------------------|-----------------------0h2--|

  then it goes back into the chorus,another verse,then the chorus and then:


  1/2       1/2            now the solo:(what i could make outta it.)
-/---------/-------------|-----------------------------|
/------------------------|--------4--5--9--10-*15--14--|   *full
4h2--4h2--4h2--4h2--4h2--|-----------------------------|
-------------------------|-----6-----------------------|
-------------------------|--4--------------------------|
-------------------------|-----------------------------|

---------------------------------------------------------|
9--10--12-----9--10--12-----9h10h12--12h14h12--12h14h10--|
-------14~~~---------14~~~-------------------------------|
---------------------------------------------------------|
---------------------------------------------------------|
---------------------------------------------------------|

------------------------------|----------------------------------------|
------------------------------|----------------------------------------|
------------------------------|---------------------------------------\|
4--5--6--7--8--9--10--11--12--|----------------------------------------|
2--3--4--5--6--7--8---9---10--|----------------------------------------|
------------------------------|--0--0--0--0--0--0--0--0--0--0--0--0--0-|


              harm.
-----------------------------|-------------------------------------|
15~~~--14h15-*17-*17--19~~~--|--5--7h8h12h13h14h15h16h17h18h19--8--|
-----------------------------|-------------------------------------|
-----------------------------|-------------------------------------|
-----------------------------|-------------------------------------|
-----------------------------|-------------------------------------|

15h12--17h15h14h12------------------15h12--17h15h14h12--14/12-------------------|
--------------------19h15h19h17h15----------------------------------------------|
--------------------------------------------------------------------------------|
--------------------------------------------------------------------------------|
--------------------------------------------------------------------------------|
--------------------------------------------------------------------------------|












WHEW!!!!!!!!!!!! that took me forever. APPRECIATE IT!!!!!
Добавлено: 08.10.2013
Другие материалы по этой песне:

Страница создана 08.10.2013
http://primanota.ru/van-halen/1984-chords.htm
Привет, Гость.
Предлагаем пройти революционный курс по гитаре.
Подарок от PrimaNota.Ru, забирай!