PrimaNota.ru - самый крупный в мире бесплатный архив песенных текстов, аккордов, табулатур и нот


Van Gogh - Neko Te Ima Nocas - таба, видео

Регистрация Запомнить меня
Войти через:  Facebook Google Twitter Vk Yandex Mail.ru

Van Gogh - Neko Te Ima Nocas - таба, видео

Печатать
Просмотров: 99
------------------------------------|
-------3----------------------------|
-----0---0-----------0--------0-----|
---2-------2-------2---2----4---4---|
-----------------3--------5---------|
--0---------------------------------|


------------------------------------------------------------------------------|
------------------------------------------------------------------------------|
---6-6---8----------------------------6-6--8----------------------------------|
---------------2-2-2-2~--2-------------------------2-2-2-2~~FULL--------------|
------------6----------------6-------------------6----------------------------|
------------------------------------------------------------------------------|


------------------------------------|
------------------------------------|
------------------------------------|
--2---2-2---2-2---4-4-4-4-4---------|
--2---2-2---3-3---5-5-5-5-5---------|
--0---0-0---------------------------|


By ----------M@Re.666----------|
From --------Serbia------------|

COVER of ---------Van Gogh - Neko te ima nocas--------
Добавлено: 20.12.2013
Другие материалы по этой песне:

Страница создана 23.02.2012
http://primanota.ru/van-gogh/neko-te-ima-nocas-chords.htm
Привет, Гость.
Предлагаем пройти революционный курс по гитаре.
Подарок от PrimaNota.Ru, забирай!