PrimaNota.ru - самый крупный в мире бесплатный архив песенных текстов, аккордов, табулатур и нот


Vampires Everywhere - Immortal Love - текст песни, таба, видео

Регистрация Запомнить меня
Войти через:  Facebook Google Twitter Vk Yandex Mail.ru

Vampires Everywhere - Immortal Love - текст песни, таба, видео

Печатать
Просмотров: 195
1st tab of this song!!! and this is my first tab :0 

Band-Vampires Everywhere!
Album-Lost In The Shadows EP
Song-Immortal Love
Tuneing-dropC#
*=Palm Mute.

INTRO(:20-:35)
|---------------------------------------------------------|
|---------------------------------------------------------|
|---------------------------------------------------------|
|-------(LISTEN TO THE SONG FOR THIS PART)----------------|   
|000-000-000-000-000000000000000000000000-----------------|
|000-000-000-000-000000000000000000000000-----------------|
 *** *** *** *** ************************

|---------------------------------------------------------|
|---------------------------------------------------------|
|---------------------------------------------------------|
|----(LISTEN TO THE SONG FOR THIS PART)-----5~--5~--------|   
|000-000-000-000-000000000000000000000000---5~--5~--------|
|000-000-000-000-000000000000000000000000---5~--5~--------|
 *** *** *** *** ************************

VERSE(:36-:57)
|---------------------------------------------------------|\
|---------------------------------------------------------| \
|---------------------------------------------------------|  \
|-5-5----8-8-8-5-5-5-7-7-7-3-3-3-5-5-5--------------------|X2 \
|-5-5-----------------------------------------------------|    \
|-5-5-----------------------------------------------------|     \
                                                                 \
|---------------------------------------------------------|       \
|---------------------------------------------------------|        \
|---------------------------------------------------------|         \
|-1-1----8-8-8-5-5-5-7-7-7-3-3-3-5-5-5--------------------|         X2
|-1-1-----------------------------------------------------|        /
|-1-1-----------------------------------------------------|       /
                                                                 /
|---------------------------------------------------------|     /
|---------------------------------------------------------|    /
|---------------------------------------------------------|   /
|-3-3----8-8-8-5-5-5-8-8-8-7-7-7-8-8-8--------------------|  /
|-3-3-----------------------------------------------------| /
|-3-3-----------------------------------------------------|/

PRE CHORUS(:58-1:07) Come on come on come...
|---------------------------------------------------------|
|---------------------------------------------------------|
|-------------------10-----7----8-------------------------|
|5----7---8----10---10X15--7X8--8X8-----------------------|
|5X13-7---8X13-10---8------5----6-------------------------|
|5----7---8----10-----------------------------------------|

CHORUS(1:18-1:55)Call it love call it lies...
|----------------------------------------------------------|
|----------------------------------------------------------|
|----------------------------------------------------------|
|1-1-1-1-1--3-3-3-3-3-5----------------8-----------3-------|
|1-1-1-1-1--3-3-3-3-3-5--8-7-8-5-7-5h7-8--12-10h12-3--7-7h8|
|1-1-1-1-1--3-3-3-3-3-5-0-0-0-0-0-0----8-0--0------3-0-0---|
                        * * * * * *      *  *        * *
cont.
|------------------|
|------------------|
|------------------|   
|1-----------------|            All this X2 then
|1X15--------------| 
|1-----------------|

|--------------------------------------------------|
|--------------------------------------------------|
|--------------------------------------------------|
|5-5-5-3-5~-8-8-8-8-8-8-8-1-1-1-0-1~-3-3-3---3-3-3-|X2
|5-5-5-3-5~-8-8-8-8-8-8-8-1-1-1-0-1~-3-3-3---3-3-3-|
|5-5-5-3-5~-8-8-8-8-8-8-8-1-1-1-0-1~-3-3-3---3-3-3-|

Pre Verse(1:50-1:54)
|5~-5~|
|5~-5~|
|5~-5~|

Repeat Verse(1:52-2:15)

Bridge (2:16-2:26)

Repeat Chorus(2:37-3:08)

Pre Chorus(3:16-3:22)
|-------------------|
|-------------------|
|-10---7---8---6----|
|-10x4-7x4-8x4-6----|
|-8----5---6---4----|
|-------------------|

Repeat Chorus. Let ring out.(3:27-3:58)
Добавлено: 07.03.2012
Вам также может быть интересно:
Другие материалы по этой песне:

Страница создана 07.03.2012
http://primanota.ru/vampires-everywhere/immortal-love-chords.htm
Привет, Гость.
Предлагаем пройти революционный курс по гитаре.
Подарок от PrimaNota.Ru, забирай!