PrimaNota.ru - самый крупный в мире бесплатный архив песенных текстов, аккордов, табулатур и нот


Value Pac - We Are The Ones - таба, бас-таба, видео

Регистрация Запомнить меня
Войти через:  Facebook Google Twitter Vk Yandex Mail.ru

Value Pac - We Are The Ones - таба, бас-таба, видео

Печатать
Просмотров: 132
		   Title:We are the ones
Artist:Value Pac
Album:Jalapeno


Intro:

C#  (hold while the bass is playing)
Verses:

this is a basic ska rhythm(upstroke)

           (C#)            (B)               (C#sus)

------x----x-----x----x---------x----x--------                   
------6----6-----4----4---------7----7--------              repeat as many times as needed
------6----6-----4----4---------6----6--------
------6----6-----4----4---------6----6--------
------x----x-----x----x---------x----x--------
------x----x-----x----x---------x----x--------
Pre-Chorus:

G#               (Hold the note)

Chorus:


C#          F#        G#

Bridge:

B         F#        B       G#         B        F#       G#

Guitar Solo:
I don't know the solo, but here is the rhythm guitar:

Basic ska rhythm(upstroke)
------x----x---x---x------2----2----2----2-----4-----4----4---4
------6----6---6---6------2----2----2----2-----4-----4----4---4
------6----6---6---6------3----3----3----3-----5-----5----5---4       Repeat 4 times,then 
------6----6---6---6------4----4----4----4-----6-----6----6---6       hold on a G#
------x----x---x---x------4----4----4----4-----6-----6----6---6
------x----x---x---x------x----x----x----x-----x-----x----x---x
ORDER

Intro
Verse
pre-chorus
CHorus
verse
Pre-Chorus
Chorus
BRidge
Guitar solo
intro
Verse 
Chorus

Tabbed By Jonah epps
Email:Jonah_e@hotmail.com
     
Добавлено: 17.09.2013
Другие материалы по этой песне:
  • Аккорды и текст

Страница создана 18.03.2012
http://primanota.ru/value-pac/we-are-the-ones-chords.htm
Привет, Гость.
Предлагаем пройти революционный курс по гитаре.
Подарок от PrimaNota.Ru, забирай!