PrimaNota.ru - самый крупный в мире бесплатный архив песенных текстов, аккордов, табулатур и нот


Value Pac - Inch High - таба, бас-таба, видео

Регистрация Запомнить меня
Войти через:  Facebook Google Twitter Vk Yandex Mail.ru

Value Pac - Inch High - таба, бас-таба, видео

Печатать
Просмотров: 142
		   "Inch High"                                        
 by: "Value Pac"                               
 album: "Jalepeno"                                  
 written by: "Value Pac"    
 from: "SPooN138"              
 (C) 1997 "SPooN138"

Intro

E---------------------|
B---------------------|
G--------6-----------|
D--------6--3--4--6|
A--4~---4--3--4--6|
E------------1--2--4|

ThE CooL PaRt

E---------------------------------------------------------------|
B---------------------------------------------------------------|
G---------------------------------------------------------------|
D---------6-4-3-----------------------------------------------|
A--4--4-----------------1--------------------------6-4-3-4-|
E------------------1--1----1--2--2-2-4-2-4-4-------------|
     
Добавлено: 16.08.2013
Другие материалы по этой песне:
  • Аккорды и текст

Страница создана 07.06.2012
http://primanota.ru/value-pac/inch-high-chords.htm
Привет, Гость.
Предлагаем пройти революционный курс по гитаре.
Подарок от PrimaNota.Ru, забирай!