PrimaNota.ru - самый крупный в мире бесплатный архив песенных текстов, аккордов, табулатур и нот


Vallorch - Anguana - таба, видео

Регистрация Запомнить меня
Войти через:  Facebook Google Twitter Vk Yandex Mail.ru

Vallorch - Anguana - таба, видео

Печатать
Просмотров: 101
-------------------------------------------------------------------------------
                           ANGUANA - Vallorch
-------------------------------------------------------------------------------
Tabbed by:
E-mail:

This is my first tab so it may be not 100% correct.
Tuning: Standard (EBGDAE)
                             x4                      PM   PM   PM  PM   PM   PM
e||--------------------------||------------------|------------------------------|
B||--------------------------||------------------|------------------------------|
G||--------------------------||------------------|------------------------------|
D||-4----7-5-4-2-4-----------||----7-5-----------|----------------5----5----5---|
A||-2-2--5-3-2-0-2-2--0--4-5-||-2--5-3-2--0-4-5--|--2----2----2---3-33-3-33-3-3-|
E||---0------------0--0--2-3-||-0------0--0-2-3--|--0-00-0-00-0-0---------------|

     PM   PM       PM   PM x3 Pre-Chorus          x2 Chorus          x4
e|-------------------------||---------------------||-----------------||
B|-------------------------||---------------------||-----------------||
D|-------------------------||----5----------------||----7-5----------||
A|-2----2----2-0-2----2----||-2--3--5------4--5-4-||-2--5-3-2--0-4-5-||
E|-0-00-0-00-0-0-0-00-0-00-||-0-----3--5-3-2--3-2-||-0------0--0-2-3-||

     PM   PM  PM   PM   PM  PM   PM   PM       PM   PM x2 Pre-Chorus          x2                    
e|-----------------------------------------------------||---------------------||
G|-----------------------------------------------------||---------------------||
D|---------------5----5----5---------------------------||----5----------------||
A|-2----2----2---3-33-3-33-3-3-2----2----2-0-2----2----||-2--3--5------4--5-4-||
E|-0-00-0-00-0-0---------------0-00-0-00-0-0-0-00-0-00-||-0-----3--5-3-2--3-2-||

   Chorus          x4 PM   PM        PM   PM PM       PM   PM  PM      PM   PM  PM               x2
e|-----------------||-----------|---------------------------------------------------------------||
B|-----------------||-----------|---------------------------------------------------------------||
G|-----------------||-----------|---------------------------------------------------------------||
D|----7-5----------||-----------|---------------------------------------------------------------||
A|-2--5-3-2--0-4-5-||-2----2----|--2------------0-2-2------------3-2-2------------0-2-2---2-2---||
E|-0------0--0-2-3-||-0----0----|--0-0000-00-00-0-0-0-0000-00-00-1-0-0-0000-00-00-0-0-0---0-0-3-||

                                             PM------------------------------------
e|--------------------|--------------------|-------------------------------------------|
B|--------------------|--------------------|-------------------------------------------|
G|--------------------|--------------------|-------------------------------------------|
D|--------------------|--------------------|-------------------------------------------|
A|-2--3--5--2--0--3-5-|-2--3--5--2--0--3-5-|-2-2----------3-3----------2-2----------3--|
E|-0--1--3--0--0--1-3-|-0--1--3--0--0--1-3-|-0-0-00-00000-1-1-11-11111-0-0-00-00000-1--|

       PM   PM       PM   PM         PM   PM               x2                  x2
e|---------------------------------------------------------||------------------||
B|---------------------------------------------------------||------------------||
G|---------------------------------------------------------||------------------||
D|---------------------------------------------------------||------------------||
A|-2-2----------2-3-3----------3-2-2----------0-2-2--2-2---||-2--3--5--2-0-3-5-||
E|-0-0-000-0000-0-1-1-111-1111-1-0-0-000-0000-0-0-0--0-0-3-||-0--1--3--0-0-1-3-||

       PM   PM        PM   PM        PM   PM        PM   PM                      Chorus           x4 End
e|-----------------------------------------------------------------------------|------------------||---------|
B|-----------------------------------------------------------------------------|------------------||---------|
G|-----------------------------------------------------------------------------|------------------||---------|
D|-----------------------------------------------------------------------------|----7-5-----------||---------|
A|-2-2----------2-3-3----------3-5-5----------5-7-7----------7-9--9--9--9--9---|-2--5-3-2--0-4-5--||-2-------|
E|-0-0-000-0000-0-1-1-111-1111-1-3-3-333-3333-3-5-5-555-5555-5-7--7--7--7--7---|-0------0--0-2-3--||-0-------|




************************************

| /   slide up
| \   slide down
| h   hammer-on
| p   pull-off
| ~   vibrato
| +   harmonic
| x   Mute note
| b   Bend
| pb  Pre-bend
| br  Bend release
| pbr Pre-bend release
| brb Bend release bend

************************************
Добавлено: 02.08.2015
Другие материалы по этой песне:
  • Аккорды и текст

Страница создана 02.08.2015
http://primanota.ru/vallorch/anguana-chords.htm
Привет, Гость.
Предлагаем пройти революционный курс по гитаре.
Подарок от PrimaNota.Ru, забирай!