PrimaNota.ru - самый крупный в мире бесплатный архив песенных текстов, аккордов, табулатур и нот


Valley Of Chrome - When Everthing Turns To Dust - таба, видео

Регистрация Запомнить меня
Войти через:  Facebook Google Twitter Vk Yandex Mail.ru

Valley Of Chrome - When Everthing Turns To Dust - таба, видео

Печатать
Просмотров: 178
Уроки эстрадного вокала в Санкт-Петербурге
Intro:
E ----------------------------------------------------|
B-----------------------------------------------------|
G-----------------------------------------------------|
D-2-2-2-2-2-2-2-4-5-4h5p4-2-0-------------------------|
A-2-2-2-2-2-2-2----------------- ---------------2-----|times
E-2-2-2-2-2-2-2---------------------------------------|


Stanza;
E----------------------------------------------------|
B----------------------------------------------------|
G----------------------------------------------------|
D------9-9-10-9—9—---9---9h10p9---9-12---------------|
A-7-7—7-------7—7--7---7----------7------------------|
E----------------------------------------------------|

E----------------------------------------------------|
B----------------------------------------------------|
G----------------------------------------------------|
D------9-9-10-9—9—---9---9h10p9---9-9h10p9-----------|
A-7-7—7-------7—7--7---7----------7------------------|
E--------------------------------------------------2-|x prin

Ref

E---------------------------------------------------|
B---------------------------------------------------|
G-7s9-7s9-7s9-7s9---h10-----------------------------|
D-xxxxxxxxxxxxxxxxxxxxxxxxxxxxxxxx
A-5s7-5s7-5s7-5s7-5---------------------------------|
E---------------------------------------------------|


E---------------------------------------------------|
B---------------------------------------------------|
G-7s9-7s9-7s9-7s9---7-7h9p7p5p4b--------------------|
D-xxxxxxxxxxxxxxxxxxxxxxxxxxxxxxxx
A-5s7-5s7-5s7-5s7-5----------------------------------|
E--------------------------------------------------2-|x again

Chorus

E--------------------------------------------------------|
B--------------------------------------------------------|
G--------------------------------------------------------|
D-9~7~5~4~44-5-7-5-4-2-----------------------------------|
A-7~5~3~2~-----------------------------------------------|
E--------------------------------------------------------|2x

Repeat
Intro
Stanza
Ref
Chorus


Bridge part 1
E----------------------------------------------------------|
B----------------------------------------------------------|
G-----0----0-----0-----0-----------------------------------|
D---5----4-----5-----7-------------------------------------|
A-7----5-----3-----5---------------------------------------|
E----------------------------------------------------------|


E----------------------------------------------------------|
B----------------------------------------------------------|
G-----0----0-----0-----0-----------------------------------|
D---5----4-----5-----4-------------------------------------|
A-7----5-----3-----2---------------------------------------|
E----------------------------------------------------------|

E----------------------------------------------------------|
B----------------------------------------------0-----------|
G-----0----0-----0-----0-----0------0-----2—2--------------|
D---5----4-----5-----7-----5-----4------1------------------|
A-7----5-----3-----5-----3-----5------2--------------------|
E----------------------------------------------------------|


End….

91 percent correct. to mga tol
jusr want to greet tukmol and my band m8 before.
genie ingat jan
Добавлено: 16.04.2012
Другие материалы по этой песне:
  • Аккорды и текст

Страница создана 16.04.2012
http://primanota.ru/valley-of-chrome/when-everthing-turns-to-dust-chords.htm
Привет, Гость.
Предлагаем пройти революционный курс по гитаре.
Подарок от PrimaNota.Ru, забирай!