PrimaNota.ru - самый крупный в мире бесплатный архив песенных текстов, аккордов, табулатур и нот


Valley Of Chrome - We The Dying - таба, видео

Регистрация Запомнить меня
Войти через:  Facebook Google Twitter Vk Yandex Mail.ru

Valley Of Chrome - We The Dying - таба, видео

Печатать
Просмотров: 131
artist:valley of chrome
song:we the dying (intro)
album: love and devotion

x - muted note
b - bend

* - [first 00:34 of the song] ill update it soon

intro

[distortion] 

e|------------------------------------------|
b|------------------------------------------|
g|--x-x-x-7--x-x-x-7-6-x-x-x-7--------------|
d|--x-x-x-7--x-x-x-7-6-x-x-x-7--5-5-5-5-6-7-|(4x)
a|--x-x-x-5--x-x-x-5-4-x-x-x-5--5-5-5-5-6-7-|
e|------------------------------3-3-3-3-4-5-|
   
E|----------------------------------------------------------|
B|--5-7-8b-5-7-8b-5-7-8b-7-6-5b-----------------------------|
G|------------------------------3-5-6b--3-5-6b-3-5-6b-5-4-3b|
D|----------------------------------------------------------|
A|----------------------------------------------------------|
E|----------------------------------------------------------|


end~ 

Добавлено: 21.06.2012
Вам также может быть интересно:
Другие материалы по этой песне:
  • Аккорды и текст

Страница создана 21.06.2012
http://primanota.ru/valley-of-chrome/we-the-dying-chords.htm
Привет, Гость.
Предлагаем пройти революционный курс по гитаре.
Подарок от PrimaNota.Ru, забирай!