PrimaNota.ru - самый крупный в мире бесплатный архив песенных текстов, аккордов, табулатур и нот


Valley Of Chrome - Kiss Of Medusa - таба, видео

Регистрация Запомнить меня
Войти через:  Facebook Google Twitter Vk Yandex Mail.ru

Valley Of Chrome - Kiss Of Medusa - таба, видео

Печатать
Просмотров: 130
Kiss of Medusa Tab by Valley Of Chrome, www.Ultimate-Guitar.Com

Song: Kiss of Medusa
Artist: Valley of Chrome
Date Tabbed: April 16, 2009
Guitar Tabber: Danzel Galera/16/m/Aringay, La Union
              shadowsfall031@yahoo.com(Friendster&YM)
              09099974838(Sun Cell)

Gtr.Legends:
~ - LET IT RING
x - DEAD STRING
. - PALM MUTING
b - BEND

Gtr.Tuning:drop D

Intro: 

e|------------|
B|------------|
G|------------|
D|------------|
A|------------|
d|--14/4------|

e|-------------------------|	 --------------------|
B|-------------------------|	 --------------------|	
G|-------------------------|	 --------------------|
D|-------------------------|	 --------------------|
A|---------5---7---7s8-7---|	 ----5---8p7---7-----|
d|------0----0---0---------|3x       --0---0-----0-------|
	.    .   . 		   .   .     .
e|-------------------------|	 --------------------|
B|-------------------------|	 --------------------|	
G|-------------------------|	 --------------------|
D|-------------------------|	 --------------------|
A|---------5---7---7s8-7---|	 ----5---8p7---7-----|
d|------0----0---0---------|3x       --0---0-----0-------|
	.    .   . 		   .   .     .
						      
Verse: 

e|---------------------------|	 --------------------|
B|---------------------------|	 --------------------|	
G|---------------------------|	 --------------------|
D|---------------------------|	 --------------------|
A|----------5---7---7s8-7----|	 ----5---8p7---7-----|
d|--------0----0---0---------|3x --0---0-----0-------|
 	  .    .   .               .   .     .

e|-------------------------------------------------|
B|-------------------------------------------------|
G|-------------------------------------------------|
D|---------------------------------3-333-3p2-0-----|
A|--------5--7------8-7------7-8---3-333----3------|
d|---0000--0---0000--0--0000--0----3-333-----------|2X
     ....  .   ....  .  ....  .      ... 
Chorus:

e|--------------------------------------|
B|---------------8-7-6------------------|
G|--7-9-10-9--55-------77---------------|
D|-------------------------3-333—3p2-0--|
A|-------------------------3-333----3---|
d|-------------------------3-333--------|2X
			     ...	
e|----------------------------------------------------|
B|----------------------------------------------------|
G|----------------------------------------------------|
D|-------------6-5-4-----3--333-3p2-0-----------------|
A|--5-7-8--33--------55--3--333----3------------------|
d|-----------------------3--333-----------------------|2X
			    ...
Repeat Verse:

2nd Chorus:

e|--------------------------------------|
B|---------------8-7-6------------------|
G|--7-9-10-9--55-------77---------------|
D|-------------------------3-333—3p2-0--|
A|-------------------------3-333----3---|
d|-------------------------3-333--------|2X
			     ...
e|----------------------------------------------------|
B|----------------------------------------------------|
G|----------------------------------------------------|
D|-------------6-5-4-----3--333-3p2-0-----------------|
A|--5-7-8--33--------55--3--333----3------------------|
d|-----------------------3--333-----------------------|
			    ...
e|------------------------------------------|
B|------------------------------------------|
G|------------------------------------------|
D|-------------6-5-4-----3--5---------------|
A|--5-7-8--33--------55--3--5---------------|
d|-----------------------3--5---------------|

Bridge prt.1:

e|---------------------------------|
B|---------------------------------|
G|---------------------------------|
D|---------------------------------|
A|--------------777-888-101010-----|
d|--00-000-------------------------|8X   
    .. ...      ... ... . . .	     
After That….

e|---------------------------------------------|
B|---------------------------------------------|
G|---------------------------------------------|
D|-7--6--9--11---------------------------------|
A|-7--6--9--11---------------------------------|
d|-7--6--9--11---------------------------------|

Bridge prt.2:

e|---------------------------------------------------------------|
B|---------------------------------------------------------------|
G|---------------------------------------------------------------|
D|---7---7---7---7--5---5---5---5--8-----8-----8-----8--6--------|
A|---5---5---5---5--3---3---3---3--8-----8-----8-----8--6--------|
d|----000-000-000----000-000-000---8-888-8-888-8-888-8--6--------|2X
      ... ... ...    ... ... ...     ...   ...   ...      

Solo....
After the solo...   
e|-------------------------------------------------|
B|-------------------------------------------------|
G|-------------------------------------------------|
D|---------------------------------3-333-3p2-0-----|
A|--------5--7------8-7------7-8---3-333----3------|
d|---0000--0---0000--0--0000--0----3-333-----------|4X
     ....  .   ....  .  ....  .      ... 
			   
Last Chorus:

e|--------------------------------------|
B|---------------8-7-6------------------|
G|--7-9-10-9--55-------77---------------|
D|-------------------------3-333—3p2-0--|
A|-------------------------3-333----3---|
d|-------------------------3-333--------|2X
			     ...
e|----------------------------------------------------|
B|----------------------------------------------------|
G|----------------------------------------------------|
D|-------------6-5-4-----3--333-3p2-0-----------------|
A|--5-7-8--33--------55--3--333----3------------------|
d|-----------------------3--333-----------------------|2X
			    ...
Outro:

e|-------------------------|	 --------------------|
B|-------------------------|	 --------------------|	
G|-------------------------|	 --------------------|
D|-------------------------|	 --------------------|
A|---------5---7---7s8-7---|	 ----5---8p7---7-----|
d|------0----0---0---------|3x       --0---0-----0-------|
	.    .   .                 .   .     .
e|-------------------------|	 --------------------|
B|-------------------------|	 --------------------|	
G|-------------------------|	 --------------------|
D|-------------------------|	 --------------------|
A|---------5---7---7s8-7---|	 ----5---8p7---7-----|
d|------0----0---0---------|3x       --0---0-----0-------|
	.    .   .		   .   .     .

End....



  Pcnxia na po qng maraming errors.,Mga 90% accurate lng yan! First tym q lng kzing gmawa ng tab! 
Binabati q pla mga kbanda ko c vicente, Jerome, Jaypee!At sa idol qng c Dimebag
Darrell. Rest in Peace brother!At sana wag nting pakinggan mga emo songs nka2bd3p
kz e!!jeje!!Pra lng sa mga bakla un!!jaja!!Enjoy!!!...,\m/

Добавлено: 07.05.2012
Другие материалы по этой песне:
  • Аккорды и текст

Страница создана 07.05.2012
http://primanota.ru/valley-of-chrome/kiss-of-medusa-chords.htm
Привет, Гость.
Предлагаем пройти революционный курс по гитаре.
Подарок от PrimaNota.Ru, забирай!