PrimaNota.ru - самый крупный в мире бесплатный архив песенных текстов, аккордов, табулатур и нот


Valley Of Chrome - Heroes In A Dying Age - таба, видео

Регистрация Запомнить меня
Войти через:  Facebook Google Twitter Vk Yandex Mail.ru

Valley Of Chrome - Heroes In A Dying Age - таба, видео

Печатать
Просмотров: 120
ahhhm..this is my 1st tab......bhala na kayo magjudge kung tama ung kapa
ko.....npakahirap.....ahmmm nyo ko hah...rhen7_emo@yahoo.com


E]-------------------------------------------------------------------------|
B]-------------------------------------------------------------------------|
G]-------------------------------------------------------------------------|
D]—6-6-7-4-6-7/6-6-6-4-2-6----6-7-4-6--------------------------------------|
A]—6--------------------------6-------------7-9-6--------------------------|
E]—4--------------------------4--------------------------------------------|

-------------------------------------------------------------------------|
-----------------------------------7/6-6-4-------------------------------|
---6-6-7-4-6-7/6-6-6-4-2-6-6-7-4-6---------7-6---------------------------|
---6---------------------6-----------------------------------------------|
---4---------------------4-----------------------------------------------|

e------------------------------------------------------------------------|
b------------------------------------------------------------------------|
g----------------------------------------7-6-4-4h6-4---------------------|
d-7-6-7-9-7-6-7-----9-7-6/3-5-5/7-9-7-6/7-----------7-6-7----------------|
a---------------9/11-----------------------------------------------------|
e
Добавлено: 22.03.2012
Другие материалы по этой песне:
  • Аккорды и текст

Страница создана 22.03.2012
http://primanota.ru/valley-of-chrome/heroes-in-a-dying-age-chords.htm
Привет, Гость.
Предлагаем пройти революционный курс по гитаре.
Подарок от PrimaNota.Ru, забирай!