PrimaNota.ru - самый крупный в мире бесплатный архив песенных текстов, аккордов, табулатур и нот


Valley Lodge - Go - таба, видео

Регистрация Запомнить меня
Войти через:  Facebook Google Twitter Vk Yandex Mail.ru

Valley Lodge - Go - таба, видео

Печатать
Просмотров: 43
-------------------------------------------------------------------------------
                             GO - Valley Lodge
                       A.K.A.: Last Week Tonight Theme
-------------------------------------------------------------------------------
Tabbed by: Max S.

Tuning: Standard

INTRO riff
e|---------------------------------------------------------------------------|
B|----11------11--11--11---9-----11----11--11--11--11---9--9--9--------------|
G|----11------11--11--11---11----11----11--11--11--11---11-11-11-------------|
D|---------------------------------------------------------------------------|
A|---------------------------------------------------------------------------|
E|---------------------------------------------------------------------------|

e|---------------------------------------------------------------------------|
B|---------------------------------------------------------------------------|
G|----10-----10--10--10--8---------------------------------------------------|
D|----11-----11--11--11--11-----10----10--10--10--10---8--8------------------|
A|------------------------------11----11--11--11--11---11-11-----------------|
E|------------------------------------------------------------11-------------|

MELODY (also played during chorus)
e|---------------------------------------------------------------------------|
B|--11--11--9------9--------------11--11--9------9---------------------------|
G|-------------10----------------------------10-----11-----------------------|
D|--------------------11-----------------------------------------------------|
A|---------------------------------------------------------------------------|
E|---------------------------------------------------------------------------|

CHORDS - Intro (same timing as intro riff, enter with melody)
e|---------------------------------------------------------------------------|
B|---------------------------------------------------------------------------|
G|----11---------------------------------------------------------------------|
D|----11-(x2)----11----6-----------------------------------------------------|
A|----9----------11----6-----------------------------------------------------|
E|---------------9-----4-----------------------------------------------------|

CHORDS - Verse and Chorus
e|---------------------------------------------------------------------------|
B|---------------------------------------------------------------------------|
G|---------------6-----------------------------------------------------------|
D|----4---(x2)---6-----6-----------------------------------------------------|
A|----4----------4-----6-----------------------------------------------------|
E|----2----------------4-----------------------------------------------------|

************************************

| /   slide up
| \   slide down
| h   hammer-on
| p   pull-off
| ~   vibrato
| +   harmonic
| x   Mute note
| b   Bend
| pb  Pre-bend
| br  Bend release
| pbr Pre-bend release
| brb Bend release bend

************************************
Добавлено: 01.01.2016
Другие материалы по этой песне:
  • Аккорды и текст

Страница создана 01.01.2016
http://primanota.ru/valley-lodge/go-chords.htm
Привет, Гость.
Предлагаем пройти революционный курс по гитаре.
Подарок от PrimaNota.Ru, забирай!