PrimaNota.ru - самый крупный в мире бесплатный архив песенных текстов, аккордов, табулатур и нот


Valjak, Parni - Samo Ti Norma Belle - таба, видео

Регистрация Запомнить меня
Войти через:  Facebook Google Twitter Vk Yandex Mail.ru

Valjak, Parni - Samo Ti Norma Belle - таба, видео

Печатать
Просмотров: 133
Уроки эстрадного вокала в Санкт-Петербурге
-------------------------------------------------------------------------------
                             Parni Valjak - Samo Ti (Norma Belle)
-------------------------------------------------------------------------------
Tabbed by: JWIII
E-mail: kristian.kolar.iii@gmail.com

Tuning: Standard

Just my two cents in this amazing song.

Intro/chorus :
       G                        Last figure :
e|-----x----------------------  ----------------------------------------------|
B|-----12---------------------  ----------------------------------------------|
G|-----12-------------12-9----  -9-12-9-12------------------------------------|
D|-----12-----9--9h12---------- ----------12-9--------------------------------| -repeat this 4X - instead of
A|---- 10---------------------- ----------------------------------------------|  last figure, use the figures
E|-----x----------------------- ----------------------------------------------|  below for repeating the intro

(second time)                (third time)         (fourth time)
e|---------------------------------------------------------------------------|
B|---------------------------------------------------------------------------|
G|---9-12-9-12---------------9-12-9-12s14----------9-12-9-12-----------------|
D|-------------12--------------------------------------------12-9------------|
A|---------------------------------------------------------------------------|
E|---------------------------------------------------------------------------|

Both guitars :
     C5  B5
e|---------------------------------------------------------------------------|
B|---------------------------------------------------------------------------|
G|---5-5-4-------------------------------------------------------------------|
D|---5-5-4-------------------------------------------------------------------|
A|---3-3-2-------------------------------------------------------------------|
E|---------------------------------------------------------------------------|

Guitar 1 :
   E5 D5 E5 D5 C5               E5 D5 E5 D5 C5
e|-----------------8-8-8-8---------------------------------------------------|
B|-----------------8-8-8-8---------------------------------------------------|
G|--9--7/9-7-5-------------------9-7/9-7-5-----------------------------------|
D|--9--7/9-7-5-------------------9-7/9-7-5-----------------------------------|
A|--7--5/7-5-3-------------------7-5/7-5-3-----------------------------------|
E|---------------------------------------------------------------------------|

Guitar 2 :
e|------------------------------------------------------------------------|
B|------------------------------------------------------------------------|
G|--9--7/9-7-5-------------------9-7/9-7-5----4-2-4b----------------------|
D|--9--7/9-7-5-------------------9-7/9-7-5--------------------------------|
A|--7--5/7-5-3-------------------7-5/7-5-3--------------------------------|
E|------------------------------------------------------------------------|

Chorus : check the intro tab

After chorus, just play B5 as intro to verses.

Solo : (done by Guitar 2)
e|------------------------------------------------------------------------------|
B|--12-15-12v-12b---------------12-13p12---------------12-----------------------|
G|--------------14p12h14--------------- 14-12----12-14----12--------------------|
D|-----------------------12-14---------------14---------------------------------|
A|------------------------------------------------------------------------------|
E|------------------------------------------------------------------------------|


Guitar 1 joins and they play this :
e|----------------------------------------------15-14-12-14-12-----------------|
B|-----------------------------------------------------------------------------|
G|------------------------------------12h14p12---------------------------------|
D|--9h10--12h14-12-9h10-12h14-12-9h10------------------------------------------|
A|-----------------------------------------------------------------------------|
E|-----------------------------------------------------------------------------|

For the end of the song, both guitars play G (320033), and Cadd9 (x32033.

Progression is G-Cadd9, and fade. If you play it with ending, end with G.


************************************

| /   slide up
| \   slide down
| h   hammer-on
| p   pull-off
| ~   vibrato
| +   harmonic
| x   Mute note
| b   Bend
| pb  Pre-bend
| br  Bend release
| pbr Pre-bend release
| brb Bend release bend

************************************
Добавлено: 04.06.2016
Вам также может быть интересно:
Другие материалы по этой песне:
  • Аккорды и текст

Страница создана 04.06.2016
http://primanota.ru/valjak-parni/samo-ti-norma-belle-chords.htm
Привет, Гость.
Предлагаем пройти революционный курс по гитаре.
Подарок от PrimaNota.Ru, забирай!