PrimaNota.ru - самый крупный в мире бесплатный архив песенных текстов, аккордов, табулатур и нот


Vain - Beat The Bullet - бас-таба, видео

Регистрация Запомнить меня
Войти через:  Facebook Google Twitter Vk Yandex Mail.ru

Vain - Beat The Bullet - бас-таба, видео

Печатать
Просмотров: 191
Уроки эстрадного вокала в Санкт-Петербурге
--------------------------------------------------------------------------------
                                        Beat the Bullet - Vain
--------------------------------------------------------------------------------

Tabbed by: ChrisT

From the album: No Respect (1989)

Tuning: Eb, Ab, Db, Gb

Intro                                                             1st      2nd
Gb|--------------------------------------------------------------|-------|-----|
Db|o-------------------------------------------------------------|------o|-----|
Ab|o--4---4-4-4-4-4-------------------2---2-2-2-2-2---0---0-0-2--|-2-2--o|-/14-|
Eb|-------------------0---0-0-0-0-0------------------------------|-------|-----|

Gb|----------------------------------------------------------------------|
Db|o--------------------------------------------------------------------o|
Ab|o--4---4-4-4-4-4---4---4-4-4-4-4---7---7-7-7-7-7---7---7-7-7-7-7-----o|
Eb|----------------------------------------------------------------------|

Verse 1
Gb|----------------------------------------------------------------------|
Db|o--------------------------------------------------------------------o|
Ab|o--4---4-4-4-4-4---4---4-4-4-4-4---7---7-7-7-7-7---7---7-7-7-7-7-----o|
Eb|----------------------------------------------------------------------|

Gb|-----------------------------------------------------------9----------|
Db|---------------------------------------------------------9---9--------|
Ab|-----------------------------------7---7-7-7-7-7---7---7-------7------|
Eb|---7---7-7-7-7-7---5---5-5-5-5-5--------------------------------------|

Gb|----------------------------------------------------------------------|
Db|----------------------------------------------------------------------|
Ab|-----------------------------------7---7-7-7-7-7---7---7-7-7-7-7------|
Eb|---7---7-7-7-7-7---5---5-5-5-5-5--------------------------------------|

Chorus
Gb|----------------------------------------------------------------------|
Db|o--------------------------------------------------------------------o|
Ab|o--4---4-4-4-4-4---7---7-7-7-7-7-------------------------------------o|
Eb|-----------------------------------7---7-7-7-7-7---5---5-5-7---7-7----|

Gb|----------------------------------------------------------------------|
Db|o--------------------------------------------------------------------o|
Ab|o--4---4-4-4-4-4---4---4-4-4-4-4---7---7-7-7-7-7---7-5-7-5-7-9-7-4---o|
Eb|----------------------------------------------------------------------|

Verse 2
Gb|----------------------------------------------------------------------|
Db|o--------------------------------------------------------------------o|
Ab|o--4---4-4-4-4-4---4---4-4-4-4-4---7---7-7-7-7-7---7---7-7-7-7-7-----o|
Eb|----------------------------------------------------------------------|

Gb|-----------------------------------------------------------9----------|
Db|---------------------------------------------------------9---9--------|
Ab|-----------------------------------7---7-7-7-7-7---7---7-------7------|
Eb|---7---7-7-7-7-7---5---5-5-5-5-5--------------------------------------|

Gb|----------------------------------------------------------------------|
Db|----------------------------------------------------------------------|
Ab|-----------------------------------7---7-7-7-7-7---7---7-7-7-7-7------|
Eb|---7---7-7-7-7-7---5---5-5-5-5-5--------------------------------------|

Chorus                                                  Repeat x4   1,2,3     4
Gb|--------------------------------------------------------------|-------|-----|
Db|o-------------------------------------------------------------|------o|-----|
Ab|o--4---4-4-4-4-4---7---7-7-7-7-7------------------------------|------o|-----|
Eb|-----------------------------------7---7-7-7-7-7---5---5-5-7--|-7-7---|-/19-|

Guitar Solo
Gb|----------------------------------------------------------------------|
Db|o--------------------------------------------------------------------o|
Ab|o--4---4-4-4-4-4---7---7-7-7-7-7-------------------------------------o|
Eb|-----------------------------------7---7-7-7-7-7---5---5-5-7---7-7----|

Gb|----------------------------------------------------------------------|
Db|----------------------------------------------------------------------|
Ab|---4---4-4-4-4-4---4---4-4-4-4-4---7---7-7-7-7-7---7---7-7-7-7-7------|
Eb|----------------------------------------------------------------------|

Gb|----------------------------------------------------------------------|
Db|----------------------------------------------------------------------|
Ab|---4---4-4-4-4-4---4---4-4-4-4-4---7---7-7-7-7-7---7-5-7-5-7-9-7------|
Eb|-----------------------------------------------------------------9\---|

Chorus
Gb|----------------------------------------------------------------------|
Db|----------------------------------------------------------------------|
Ab|------------------------------------------------4/16-16-16-16-16-16\--|
Eb|----------------------------------------------------------------------|

                                                                Repeat x4
Gb|----------------------------------------------------------------------|
Db|o--------------------------------------------------------------------o|
Ab|o--4---4-4-4-4-4---7---7-7-7-7-7-------------------------------------o|
Eb|-----------------------------------7---7-7-7-7-7---5---5-5-7---7-7----|

Gb|----------------------------------------------------------------------|
Db|----------------------------------------------------------------------|
Ab|---4---4-4-4-4-4---7---7-7-7-7-7-------------------0-/14-14-14-14\----|
Eb|-----------------------------------7---7-7-7-7-7----------------------|

Gb|----------------------------------------------------------------------|
Db|----------------------------------------------------------------------|
Ab|---4---4-4-4-4-4---7---7-7-7-7-7-------------------0---0-0-2---2-2----|
Eb|-----------------------------------7---7-7-7-7-7----------------------|

Gb|----------------------------------------------------------------------|
Db|----------------------------------------------------------------------|
Ab|---4--------/7\5/9\7/11\9/14\12/16\--------4/16------------4----------|
Eb|----------------------------------------------------------------------|



| /  slide up
| \  slide down
| h  hammer-on
| p  pull-off
| ~  vibrato
| +  harmonic
| x  Mute note
===============================================================================
Добавлено: 14.11.2013
Другие материалы по этой песне:
  • Аккорды и текст

Страница создана 14.11.2013
http://primanota.ru/vain/beat-the-bullet-chords.htm
Привет, Гость.
Предлагаем пройти революционный курс по гитаре.
Подарок от PrimaNota.Ru, забирай!