PrimaNota.ru - самый крупный в мире бесплатный архив песенных текстов, аккордов, табулатур и нот


Vaiko Eplik Ja Eliit - Poordumatult Soe - аккорды и текст, видео

Регистрация Запомнить меня
Войти через:  Facebook Google Twitter Vk Yandex Mail.ru

Vaiko Eplik Ja Eliit - Poordumatult Soe - аккорды и текст, видео

Печатать
Просмотров: 121
Авторы музыки: Vaiko Eplik
Авторы текста: Vaiko Eplik
Poordumatult Soe
Vaiko Eplik Ja Eliit
http://www.youtube.com/watch?v=QUDB8Qaakjk&feature=related
(Aitäh kasutajale "Marvin" foorumist "kitarr.astar.ee"  Parandused on teretulnud.)
(akorditähised ei pruugi õiged olla)



Vaiko Eplik ja eliit
"Pöördumatult soe"


                F#     F#   EmM7 C#m B    E
E:--------------0---|--0----0----0--------0----|
B:--------------0---|--0----4----5---4----0----|
G:--------------3---|--3----4----6---4----1----|
D:--------------4---|--4----6----6---4----2----|
A:-----------2--4---|--4---(4)---4---2----2----|
E:--0--2--4-----2---|--2------------------0----|


    Badd9     GM9     Aadd9     G#m9     Bm7/E
E:------------2-----------------6----|---2-----|
B:--7---------3-------5---------4----|---3-----|
G:--6---------2-------4---------4----|---2-----|
D:--9---------5-------7---------6----|---4-----|
A:--6---------2-------4---------6----|---2-----|
E:------------------------------4----|---0-----|
 
    Badd4   A       G6      E5
E:--0-------0-------0-------0------|
B:--0-------5-------0-------0------|
G:--8-------6-------4-------x------|
D:--9-------7-------5-------2------|
A:--9-------7-------5-------2------|
E:--7-------5-------3-------0------|



F#
F#


 F#     EmM7         C#m     B    E     
lootma jään, et oled pöördumatult soe
F#      EmM7         C#m     B    E
lootma jään, et oled pöördumatult soe

Badd9    GM9      Aadd9      G#m9      Badd9   GM9          Aadd9      G#m9
lahke ja hea nagu ammu ootav leek, mis sügaval sees ja sind õnnelikuks teeb

Bm7/E               Badd4   A
ja mida kaotada ei saa
G6        E5       Badd4   A
aaaaaaaaaaa   ei saa
G6        E5
aaaaaaaaaaa


F#     EmM7         C#m     B    E 
ootan veel, et oled pöördumatule soe
F#     EmM7          C#m     B    E 
lootma jään, et oled pöördumatult soe

Badd9    GM9      Aadd9      G#m9      Badd9   GM9          Aadd9      G#m9
lahke ja hea nagu ammu ootav leek, mis südames ja sind õnnelikuks teeb
Bm7/E               Badd4   A
ja mida kaotada ei saa
G6       E5        Badd4   A
aaaaaaaaaaa   ei saa
G6      E5
aaaaaaaaaaa

Badd4    A      G6       E5      
aaaaaaaaaaaaaaaaaaaaaaaaaaaaaaa-
Badd9   GM9    Aadd9    G#m9
auuuuuu uuuuuuu aaaaaaaaaa
Badd9    GM9    Aadd9      G#m9           Bm7/E
haaaaa ha haaa haaaa ha haaa haaaa aaa
 Bm
ja mida kaotada ei saa
ei saa
ei saa
Добавлено: 14.09.2013
Вам также может быть интересно:
Другие материалы по этой песне:
  • Аккорды и текст

Страница создана 09.07.2013
http://primanota.ru/vaiko-eplik-ja-eliit/poordumatult-soe-chords.htm
Привет, Гость.
Предлагаем пройти революционный курс по гитаре.
Подарок от PrimaNota.Ru, забирай!