PrimaNota.ru - самый крупный в мире бесплатный архив песенных текстов, аккордов, табулатур и нот


Vaginal Jesus - Wrapped In Chains - таба, видео

Регистрация Запомнить меня
Войти через:  Facebook Google Twitter Vk Yandex Mail.ru

Vaginal Jesus - Wrapped In Chains - таба, видео

Печатать
Просмотров: 186
Уроки эстрадного вокала в Санкт-Петербурге
Vaginal Jesus
Affirmative Apartheid
Wrapped in Chains

Copyright (c) Unholy Records 2002
Version 1.1 - 17.8.2009


.  - palm mute           /  - slide up to
\  - slide down to       ~  - vibrato
h  - hammer on           b  - Bend
p  - pull off            Suffixes for bend
t  - tap                 f  - full bend    h - half bend
ph - pinched harmonic    q  - quarter bend t - tap bend
*  - see comment         ^  - Hold bend    r release bend
x  - Stuccatto           ~  - vibrato bend
,  - slight palm mute    () - ghost note, sustained note
"  - tremolo note        <> - Trill

Riff A (fast)
|-----------------|
|-----------------|
|-----------------|
|-----------------|
|-4-5-6---6---6-8-|
|-2-3-4-0-4-0-4-6-|

Riff B
|-----------------------------------------------------------------|
|-----------------------------------------------------------------|
|-3---------------------------------------------------------------|
|-1---------------------------------------------------------------|
|---------5-------4-4-4-4-4-4-4-4-4-4-4-4-4-4-4-4-4-4-4-4-4-4-4-4-|
|---------3-------2-2-2-2-2-2-2-2-2-2-2-2-2-2-2-2-2-2-2-2-2-2-2-2-|
                  . . . . . . . . . . . . . . . . . . . . . . . .

 -----------------------------------------------------------------|
 -----------------------------------------------------------------|
 -4---------------------------------------------------------------|
 -2---------------------------------------------------------------|
 ---------4-------3-3-3-3-3-3-3-3-3-3-3-3-3-3-3-3-3-3-3-3-3-3-3-3-|
 ---------2-------1-1-1-1-1-1-1-1-1-1-1-1-1-1-1-1-1-1-1-1-1-1-1-1-|
                  . . . . . . . . . . . . . . . . . . . . . . . .

 -----------------------------------------------------------------|
 -----------------------------------------------------------------|
 -3---------------------------------------------------------------|
 -1---------------------------------------------------------------|
 ---------5-------4-4-4-4-4-4-4-4-4-4-4-4-4-4-4-4-4-4-4-4-4-4-4-4-|
 ---------3-------2-2-2-2-2-2-2-2-2-2-2-2-2-2-2-2-2-2-2-2-2-2-2-2-|
                  . . . . . . . . . . . . . . . . . . . . . . . .

 -----------------------------------------------------------------|
 -----------------------------------------------------------------|
 -4-------6-------------------------------------------------------|
 -2-------4-------------------------------------------------------|
 -----------------3-3-3-3-3-3-3-3-3-3-3-3-3-3-3-3-3---------------|
 -----------------1-1-1-1-1-1-1-1-1-1-1-1-1-1-1-1-1---------------|
                  . . . . . . . . . . . . . . . .
Structure

Riff A x8
Riff B x1
Riff A x8
Riff B x1


END
Добавлено: 17.06.2012
Другие материалы по этой песне:
  • Аккорды и текст

Страница создана 17.06.2012
http://primanota.ru/vaginal-jesus/wrapped-in-chains-chords.htm
Привет, Гость.
Предлагаем пройти революционный курс по гитаре.
Подарок от PrimaNota.Ru, забирай!