PrimaNota.ru - самый крупный в мире бесплатный архив песенных текстов, аккордов, табулатур и нот


Vaginal Jesus - Million Monkey March - таба, видео

Регистрация Запомнить меня
Войти через:  Facebook Google Twitter Vk Yandex Mail.ru

Vaginal Jesus - Million Monkey March - таба, видео

Печатать
Просмотров: 162
Vaginal Jesus
Affirmative Apartheid
Million Monkey March

Copyright (c) Unholy Records 2002
Version 1.0 - 21.6.2006


.  - palm mute           /  - slide up to
\  - slide down to       ~  - vibrato
h  - hammer on           b  - Bend
p  - pull off            Suffixes for bend
t  - tap                 f  - full bend    h - half bend
ph - pinched harmonic    q  - quarter bend t - tap bend
*  - see comment         ^  - Hold bend    r release bend
x  - Stuccatto           ~  - vibrato bend
,  - slight palm mute    () - ghost note, sustained note
"  - tremolo note        <> - Trill

Tuning is D#

Riff A                   Fill
|-----------------------||-------------|
|-----------------------||-------------|
|-----------------------||-------------|
|-----------------------||-------------|
|-7"---5"-7"-8"---7"-5"-||-7-----5-----|
|-5"---3"-5"-6"---5"-3"-||-5-----3-----|

Riff B1
|-----------------------------------------------------------------|
|-----------------------------------------------------------------|
|-----------------------------------------------------------------|
|-----------------------------------------------------------------|
|-2-2---2-2-2-2-2-5-5---5-5-5-5-5-2-2---2-2-2-2-2-8-8---8-8-8-8-8-|
|-0-0---0-0-0-0-0-3-3---3-3-3-3-3-0-0---0-0-0-0-0-6-6---6-6-6-6-6-|
        . . . . .       . . . . .       . . . . .       . . . . .

Riff B2
|-----------------------------------------------------------------|
|-----------------------------------------------------------------|
|-----------------------------------------------------------------|
|-----------------------------------------------------------------|
|-2-2---2-2-2-2-2-5-5---5-5-5-5-5-2-2---2-2-2-2-2-8---8---8---8---|
|-0-0---0-0-0-0-0-3-3---3-3-3-3-3-0-0---0-0-0-0-0-6---6---6---6---|
        . . . . .       . . . . .       . . . . .

End
|-------------|
|-------------|
|-------------|
|-------------|
|-7------\----|
|-5------\----|

Structure (middle means both):
Left Channel    Right Channel
Riff Ax3
           Fill    x1
           Riff A  x7
           Fill    x1

           Riff B1 x1
           Riff B2 x1
           Riff A  x7
           Fill    x1

           Riff B1 x1
           Riff B2 x1
           Riff A  x1
           End


END
Добавлено: 29.06.2012
Другие материалы по этой песне:
  • Аккорды и текст

Страница создана 29.06.2012
http://primanota.ru/vaginal-jesus/million-monkey-march-chords.htm
Привет, Гость.
Предлагаем пройти революционный курс по гитаре.
Подарок от PrimaNota.Ru, забирай!