PrimaNota.ru - самый крупный в мире бесплатный архив песенных текстов, аккордов, табулатур и нот


Vadu - La Fora - таба, видео

Регистрация Запомнить меня
Войти через:  Facebook Google Twitter Vk Yandex Mail.ru

Vadu - La Fora - таба, видео

Печатать
Просмотров: 96
Уроки эстрадного вокала в Санкт-Петербурге
Vadu - La fora


Tabbed by Avi Yaacove
Israel, sometime in 2014


Vadu was a great singer/guitar player from Cape verde, who unfortunately passed away...

This is a beautiful song, which has some really nice guitar work 
(another great song of his is Dixi Rubera which I might also tab at a later time)


Main melody:

    G          D          Em      Em

e|---------------------------|
B|---------------------------|
G|---------------------0-----|          
D|-------------0---4------2--|          
A|------2---3----------------|
E|--3------------------------|



   G                          D                         Em

e|------3--------3---------------2-------2-----------|------0-------0------------|
B|--------0--------0-----0---------3-------3----(3)--|--------0-------0-----0----|
G|---------------------------------------------0-----|---------------------------|
D|----------------------------0-------4--------------|--2--------2-------2-------|
A|------------2--------3-----------------------------|---------------------------|
E|--3------------------------------------------------|---------------------------|

                                                         Em part X 2



Next part:

         C                   G                   Am           Am

e|-----------0---|-----------3---|-----------0---|
B|--------1--1---|--------1--0---|--------1--1---|
G|------0----0---|------0----0---|------0----2---|                
D|--0h2------2---|--0h2------0---|--0h2------2---|
A|-----------3---|-----------2---|-----------0---|
E|---------------|-----------3---|---------------|




Verse:

                G                          D                                    Em
e|-----3------3-----3--|----2------2-----2--|-----0------0------0-----0-----0-----0--|
B|-------0------0------|------3------3------|-------0------0------------0-----0------|
G|---------0------0----|--------2------2----|---------0------0------------0-----0----|
D|---------------------|--0-----------------|----------------------------------------|
A|---------------------|--------------------|----------------------------------------|
E|--3------------------|--------------------|--0--------------------0----------------|






1st Solo - Acoustic  @  3:09

e|----------------------|-----------|--3-5-7/10----7---------|
B|----------------------|------5-3--|----------------10-8-7--|
G|------------0-2-2/4v--|--2-4------|------------------------|
D|----------------------|-----------|------------------------|
A|--0h2---2-------------|-----------|------------------------|
E|------3---------------|-----------|------------------------|


e|-----------------------|---------------------|
B|-----------------------|---------------------|
G|--9p7------------------|--------------0------|
D|------9p7--7h9--7-5-4--|--2p0--0-2-4----2-0--|
A|-----------------------|---------------------|
E|-----------------------|---------------------|


e|--------------------------------------10-12-14-15--|-----12-15-17--|--17-15-14-12-10-10--|
B|---------------------------7-8-10--12--------------|--12-----------|---------------------|
G|-----------------------7-9-------------------------|---------------|---------------------|
D|----------------7-9-10-----------------------------|---------------|---------------------|
A|---------7-9-10------------------------------------|---------------|---------------------|
E|--7-8-10-------------------------------------------|---------------|---------------------|


e|--10p7-7---------|--10-10-7-7---------|---------------|------------|-----------|------------|
B|---------10-8-7--|------------10-8-7--|------8p7------|--10p8------|--8p7------|--10p8------|
G|-----------------|--------------------|--7h9-----9p7--|-------9p7--|------9p7--|-------9p7--|
D|-----------------|--------------------|---------------|------------|-----------|------------|
A|-----------------|--------------------|---------------|------------|-----------|------------|
E|-----------------|--------------------|---------------|------------|-----------|------------|


e|-------------------------|--7----|
B|----------------------8--|----8--|
G|--9p7--------------------|-------|
D|------7/9----7-7-7h9-----|-------|
A|-------------------------|-------|
E|-------------------------|-------|



2nd Solo - Electric  @  3:39


e|-----------------------|--------------------------------------|
B|--12vvv----------------|--------12-15/17vv---19b20-19--17vvv--|
G|--14-----14vvv--12vvv--|--12-14-------------------------------|
D|-----------------------|--------------------------------------|
A|-----------------------|--------------------------------------|
E|-----------------------|--------------------------------------|


e|---------------------------------------------------------------|
B|--15p12----15p12------------------12-15p12---------------------|
G|--------14------14-12h14----12-14----------14p12--14-12--------|
D|--------------------------------------------------------14-12--|
A|---------------------------------------------------------------|
E|---------------------------------------------------------------|


e|-------------------------------------------|
B|-------------------------------------------|
G|-------------------------------------------|
D|--9-/-7---5/7/5/9----7/5/4--5h7p5--/4/2p0--|
A|-------------------------------------------|
E|-------------------------------------------|



Fast/Accelerating part:

e|---------------------|----------------------------------|
B|---------------------|----------0h3h5/7-7h8p7p5/3-------|
G|--------0h2h4/7p5/4--|---0h2h4/5-------------------5p4--|
D|--0h2h4--------------|----------------------------------|
A|---------------------|----------------------------------|
E|---------------------|----------------------------------|

e|------------7h8p7p5/3/2p0--0h2h3/5/7------------|
B|--0h1h3/5/7--------------------------7h8h10/12--|
G|------------------------------------------------|
D|------------------------------------------------|
A|------------------------------------------------|
E|------------------------------------------------|

e|--------------------------------------|
B|--12p10p8/7h8h10/12-----------/17vvv--|
G|----again and again-----until---------|
D|--------------------------------------|
A|--------------------------------------|
E|--------------------------------------|
Добавлено: 09.12.2015
Другие материалы по этой песне:
  • Аккорды и текст

Страница создана 09.12.2015
http://primanota.ru/vadu/la-fora-chords.htm
Привет, Гость.
Предлагаем пройти революционный курс по гитаре.
Подарок от PrimaNota.Ru, забирай!