PrimaNota.ru - самый крупный в мире бесплатный архив песенных текстов, аккордов, табулатур и нот


Вадим Германов - Осень - аккорды и текст, видео

Регистрация Запомнить меня
Войти через:  Facebook Google Twitter Vk Yandex Mail.ru

Вадим Германов - Осень - аккорды и текст, видео

Печатать
Просмотров: 208
Уроки эстрадного вокала в Санкт-Петербурге
Осень
Вадим Германов
E----------------------------------------------------------------
B---------------------------(14-14)--------12--------------------
G-------------------------------------------------14-14-13-14-11-
D-11>12---10>11------------------11------------------------------

E-----------------------------------------------------------
B---------------------------(14-14)--------12---------------
G-------------------------------------------------14-15-----
D-11>12---10>11------------------11------------------14--12-

E-------------------------------------------------------
B---------------(14-14)--------12-----------------------
G---------------------------11----------14--14-13-14-11-
D--10>11------------------------------------------------

E----------------------------------------------------------
B---------------------(14-14)--------12--------------------
G---------------------------------11----------14--14-13-11-
D-11>12-10>11----------------------------------------------

Bm Db7
Осень, как всегда, пунктуальна
Gbm D7M  
И небо поставив на мель
Bm  Db7
Она не образно, а буквально
Gb Gb7
Срывает сердца с петель

Bm Db7
Осень, как всегда, не подруга
Gbm D7M  
Ее взгляд как всегда не лучист
Bm Db7
Люди держатся друг за друга
D7M   Db7 Gbm
Как за ветку последний лист

Все будет очень просто
Я постучу - ты откроешь дверь
Если ты устала мне верить
Я попрошу тебя - верь

Мало что ли было точек?
Мало было закрытых дверей?
Если тебе холодно ночью
(Угадай с трех раз)
Кто тебя будет греть?

Припев:
Bm Db7
Что ли я зря бродил по осени
Gbm D7M  
В поисках пятого угла?
Bm Db7
Колись! Ты всю свою жизнь
Gb Gb7
Только меня ждала

Bm Db7
Осень как обои срывает листья
Gbm D7M  
От зимы наготы не тая
Bm Db7
Колись! Прежде чем открыть дверь
D7M   Db7 Gbm
Ты уже знала, что это я

Осень, как всегда, цинично смотрит
Как умирает трава
Она ставит меня на колени
И зачитывает мне права

А любовь не зависит от роста
Не зависит от глубины, пойми
Любовь - это очень просто
Давай зависнем по любви
Добавлено: 20.12.2015
Другие материалы по этой песне:
  • Аккорды и текст

Страница создана 20.12.2015
http://primanota.ru/vadim-germanov/osen-chords.htm
Привет, Гость.
Предлагаем пройти революционный курс по гитаре.
Подарок от PrimaNota.Ru, забирай!