PrimaNota.ru - самый крупный в мире бесплатный архив песенных текстов, аккордов, табулатур и нот


Vader - Sword Of The Witcher - текст песни, бас-таба, видео

Регистрация Запомнить меня
Войти через:  Facebook Google Twitter Vk Yandex Mail.ru

Vader - Sword Of The Witcher - текст песни, бас-таба, видео

Печатать
Просмотров: 367
Tuning
C
F
A#
D#


Blood upon the skies...
|-----------|
|-----------|
|-----------|
|-----------|

(After)Always ready....Always!
|--------------------------------------------------|
|--------------------------------------------------|
|--------------------------------------------------|
|--1--1--1--1--1--1--1--1--1--1--1--1--1--1--1--1--|

|--------------------------------------------------|
|--------------------------------------------------|
|--------------------------------------------------|
|--2--2--2--2--2--2--2--2--2--2--2--2--2--2--2--2--|

|--------------------------------------------------|
|--------------------------------------------------|
|--------------------------------------------------|
|--1--1--1--1--1--1--1--1--1--1--1--1--1--1--1--1--|

|--------------------------------------------------|
|--------------------------------------------------|
|--------------------------------------1-----------|
|--2--2--2--2--2--2--2--2--2------1---------1------|

|--------------------------------------------------|
|--------------------------------------------------|
|--------------------------------------------------|
|--1--1--1--1--1--1--1--1--1--1--1--1--1--1--1--1--|

|--------------------------------------------------|
|--------------------------------------------------|
|--------------------------------------------------|
|--2--2--2--2--2--2--2--2--2--2--2--2--2--2--2--2--|

|--------------------------------------------------|
|--------------------------------------------------|
|--------------------------------------------------|
|--1--1--1--1--1--1--1--1--1--1--1--1--1--1--1--1--|

Sword-Its blade...
|-------------------------------------------|
|-------------------------------------------|
|-------------------------------------------|
|--1--1--1--1---------1----1--1-------------|

|-------------------------------------------|
|-------------------------------------------|
|-------------------------------------------|
|--2--2--2--2---------2----4--4-----1-----1-|

|-------------------------------------------|
|-------------------------------------------|
|-------------------------------------------|
|--1--1--1--1---------1----1--1-------------|

|-------------------------------------------|
|-------------------------------------------|
|-------------------------------------------|
|--2--2--2--2---------2----4--4-----1-----1-|

|-------------------------------------------|
|-------------------------------------------|
|-------------------------------------------|
|--1--1--1--1---------1----1--1-------------|

|-------------------------------------------|
|-------------------------------------------|
|-------------------------------------------|
|--2--2--2--2---------2----4--4-----1-----1-|

|-------------------------------------------|
|-------------------------------------------|
|-------------------------------------------|
|--1--1--1--1---------1----1--1-------------|

|----------|
|----------|
|----------|
|----------|

I am the Lord...
|--------------------------------------------------|
|--------------------------------------------------|
|--------------------------------------------------|
|--3--3--3--3--3--3--3--3--3--3--3--3--3--3--3--3--|

|--------------------------------------------------|
|--------------------------------------------------|
|--------------------------------------------------|
|--2--2--2--2--2--2--2--2--2--2--2--2--2--2--2--2--|

|--------------------------------------------------|
|--------------------------------------------------|
|--------------------------------------------------|
|--3--3--3--3--3--3--3--3--3--3--3--3--3--3--3--3--|

|--------------------------------------------------|
|--------------------------------------------------|
|--------------------------------------------------|
|--2--2--2--2--2--2--2--2--2--2--2--2--2--2--2--2--|

|--------------------------------------------------|
|--------------------------------------------------|
|--------------------------------------------------|
|--3--3--3--3--3--3--3--3--3--3--3--3--3--3--3--3--|

|--------------------------------------------------|
|--------------------------------------------------|
|--------------------------------------------------|
|--2--2--2--2--2--2--2--2--2--2--2--2--2--2--2--2--|

|--------------------------------------------------|
|--------------------------------------------------|
|--------------------------------------------------|
|--3--3--3--3--3--3--3--3--3--3--3--3--3--3--3--3--|

|--------------------------------------------------|
|--------------------------------------------------|
|--------------------------------------------------|
|--2--2--2--2--2--2--2--2--2--2--2--2--2--2--2--2--|

Dragon and Wolf...
|-------------------------------------------|
|-------------------------------------------|
|-------------------------------------------|
|--1--1--1--1---------1----1--1-------------|

|-------------------------------------------|
|-------------------------------------------|
|-------------------------------------------|
|--2--2--2--2---------2----4--4-----1-----1-|

|-------------------------------------------|
|-------------------------------------------|
|-------------------------------------------|
|--1--1--1--1---------1----1--1-------------|

|-------------------------------------------|
|-------------------------------------------|
|-------------------------------------------|
|--2--2--2--2---------2----4--4-----1-----1-|

|-------------------------------------------|
|-------------------------------------------|
|-------------------------------------------|
|--1--1--1--1---------1----1--1-------------|

|-------------------------------------------|
|-------------------------------------------|
|-------------------------------------------|
|--2--2--2--2---------2----4--4-----1-----1-|

|-------------------------------------------|
|-------------------------------------------|
|-------------------------------------------|
|--1--1--1--1---------1----1--1-------------|

|----------|
|----------|
|----------|
|----------|

I am the Lord....
|--------------------------------------------------|
|--------------------------------------------------|
|--------------------------------------------------|
|--3--3--3--3--3--3--3--3--3--3--3--3--3--3--3--3--|

|--------------------------------------------------|
|--------------------------------------------------|
|--------------------------------------------------|
|--2--2--2--2--2--2--2--2--2--2--2--2--2--2--2--2--|

|--------------------------------------------------|
|--------------------------------------------------|
|--------------------------------------------------|
|--3--3--3--3--3--3--3--3--3--3--3--3--3--3--3--3--|

|--------------------------------------------------|
|--------------------------------------------------|
|--------------------------------------------------|
|--2--2--2--2--2--2--2--2--2--2--2--2--2--2--2--2--|

|--------------------------------------------------|
|--------------------------------------------------|
|--------------------------------------------------|
|--3--3--3--3--3--3--3--3--3--3--3--3--3--3--3--3--|

|--------------------------------------------------|
|--------------------------------------------------|
|--------------------------------------------------|
|--2--2--2--2--2--2--2--2--2--2--2--2--2--2--2--2--|

|--------------------------------------------------|
|--------------------------------------------------|
|--------------------------------------------------|
|--3--3--3--3--3--3--3--3--3--3--3--3--3--3--3--3--|

|--------------------------------------------------|
|--------------------------------------------------|
|--------------------------------------------------|
|--2--2--2--2--2--2--2--2--2--2--2--2--2--2--2--2--|

(After)the souls which never rest... 
|---------------|
|---------------|
|---------------|
|--1~-----------|

|---------------|
|---------------|
|---------------|
|--1~-----------|

|---------------|
|---------------|
|---------------|
|--1~-----------|

|---------------|
|---------------|
|---------------|
|--1~-----------|

|---------------|
|---------------|
|---------------|
|---------------|

|---------------|
|---------------|
|---------------|
|---------------|

I am the Lord....
|--------------------------------------------------|
|--------------------------------------------------|
|--------------------------------------------------|
|--3--3--3--3--3--3--3--3--3--3--3--3--3--3--3--3--|

|--------------------------------------------------|
|--------------------------------------------------|
|--------------------------------------------------|
|--2--2--2--2--2--2--2--2--2--2--2--2--2--2--2--2--|

|--------------------------------------------------|
|--------------------------------------------------|
|--------------------------------------------------|
|--3--3--3--3--3--3--3--3--3--3--3--3--3--3--3--3--|

|--------------------------------------------------|
|--------------------------------------------------|
|--------------------------------------------------|
|--2--2--2--2--2--2--2--2--2--2--2--2--2--2--2--2--|

|--------------------------------------------------|
|--------------------------------------------------|
|--------------------------------------------------|
|--3--3--3--3--3--3--3--3--3--3--3--3--3--3--3--3--|

|--------------------------------------------------|
|--------------------------------------------------|
|--------------------------------------------------|
|--2--2--2--2--2--2--2--2--2--2--2--2--2--2--2--2--|

|--------------------------------------------------|
|--------------------------------------------------|
|--------------------------------------------------|
|--3--3--3--3--3--3--3--3--3--3--3--3--3--3--3--3--|

|--------------------------------------------------|
|--------------------------------------------------|
|--------------------------------------------------|
|--2--2--2--2--2--2--2--2--2--2--2--2--2--2--2--2--|

|---------------|
|---------------|
|---------------|
|--1~-----------|
Добавлено: 18.08.2013
Другие материалы по этой песне:

Страница создана 21.04.2012
http://primanota.ru/vader/sword-of-the-witcher-chords.htm
Привет, Гость.
Предлагаем пройти революционный курс по гитаре.
Подарок от PrimaNota.Ru, забирай!