PrimaNota.ru - самый крупный в мире бесплатный архив песенных текстов, аккордов, табулатур и нот


Vacationer - Summer End - бас-таба, видео

Регистрация Запомнить меня
Войти через:  Facebook Google Twitter Vk Yandex Mail.ru

Vacationer - Summer End - бас-таба, видео

Печатать
Просмотров: 112
Intro
G|-----------------------|
D|-----------------------|
A|-------------10-8------|
E|-10-8--10-8--------8-8-|

Verse
G|-----------------------------------------------------------------------|
D|-----------------------------------------------------------------------|
A|-------7-88888888-10101010101010-121212-7777-88888888-1010101010101010-|
E|-88888-----------------------------------------------------------------|

Chorus
G|-------------------------------------------------------------------------------|
D|-------------------------------------------------------------------------------|
A|------------------------------------------10-10-1010-8-8-888h10----------------|
E|-10-10-1010-8-8-88-8-10-10-1010-8-8-88-8-----------------------8-8-88-8-8-88-8-|

G|-----------------------------------------------------------------------------------------|
D|-----------------------------------------------------------------------------------------|
A|---------------------------------------------------10-10-1010-8-8-888h10-----------------|
E|-12-12-1212-10-10-1010-10-12-12-1212-10-10-1010-10-----------------------8-8-88-8-8-88-8-|
Добавлено: 15.06.2013
Другие материалы по этой песне:
  • Аккорды и текст

Страница создана 15.06.2013
http://primanota.ru/vacationer/summer-end-chords.htm
Привет, Гость.
Предлагаем пройти революционный курс по гитаре.
Подарок от PrimaNota.Ru, забирай!