PrimaNota.ru - самый крупный в мире бесплатный архив песенных текстов, аккордов, табулатур и нот


Vacationer - Glimpse - таба, видео

Регистрация Запомнить меня
Войти через:  Facebook Google Twitter Vk Yandex Mail.ru

Vacationer - Glimpse - таба, видео

Печатать
Просмотров: 52
Авторы: Matthew Young, Kenny Vasoli, Grant Wheeler

-------------------------------------------------------------------------------
                             GLIMPSE - Vacationer
-------------------------------------------------------------------------------
Tabbed by:cklug
E-mail:cklug123@terpmail.umd.edu

Tuning:EADGBe
When I saw them live they used a capo 6 to help them play this part

e|--------6-6--------6-------8------------6-6--------6--------8--------------|
B|-6h8h11-----6h8h11---6h8h11------6h8h11-----6h8h11---6h8h11----------------|
G|---------------------------------------------------------------------------|
D|---------------------------------------------------------------------------|
A|---------------------------------------------------------------------------|
E|---------------------------------------------------------------------------|

e|--11p8p6-----11p8p6---11p8p6------13p11p6-------13p11p6----13p11p6---------|
B|---------8-11-------8--------8------------11-11---------11---------11------|
G|---------------------------------------------------------------------------|
D|---------------------------------------------------------------------------|
A|---------------------------------------------------------------------------|
E|---------------------------------------------------------------------------|


************************************

| /   slide up
| \   slide down
| h   hammer-on
| p   pull-off
| ~   vibrato
| +   harmonic
| x   Mute note
| b   Bend
| pb  Pre-bend
| br  Bend release
| pbr Pre-bend release
| brb Bend release bend

************************************
Добавлено: 23.12.2015
Другие материалы по этой песне:
  • Аккорды и текст

Страница создана 23.12.2015
http://primanota.ru/vacationer/glimpse-chords.htm
Привет, Гость.
Предлагаем пройти революционный курс по гитаре.
Подарок от PrimaNota.Ru, забирай!