PrimaNota.ru - самый крупный в мире бесплатный архив песенных текстов, аккордов, табулатур и нот


V8 - El Fín De Los Inicuos - бас-таба, видео

Регистрация Запомнить меня
Войти через:  Facebook Google Twitter Vk Yandex Mail.ru

V8 - El Fín De Los Inicuos - бас-таба, видео

Печатать
Просмотров: 99
Новый альбом группы 'Черный Кузнец' по культовому сериалу 'Сверхъестественное'!
                                                     \
G|------------------------------------------------   |
D|-----------------------5---5--------------------   |
A|-0-0-0|0|0-0|0|0-0|0|0-3---3---7|6|5-7|6|5-7|6|5   |
E|------------------------------------------------   |
                                                     |
G|------------------------------------------------   |
D|------------------------------------------------   |
A|-0-0-0|0|0-0|0|0-0|0|0-----5---7|6|5-7|6|5-7|6|5   |
E|-----------------------3------------------------   | Parte
                                                     |   A
G|------------------------------------------------   |
D|-----------------------5---5--------------------   |
A|-0-0-0|0|0-0|0|0-0|0|0-3---3---7|6|5-7|6|5-7|6|5   |
E|------------------------------------------------   |
                                                     |
G|------------------------------                     |
D|------------------------------                     |
A|-0-0-0|0|0-0|0|0-0|0|0-----5--                     |
E|-----------------------3------                     |
                                                     /

 ?Llegado el tiempo vendra el?   ?pues su ignorancia los mantiene en egoismo?
G|-------------------------------------------------------------12-----
D|--------------11--------11--11-----------------11--------11---------
A|-7--------10--------10------------7--------10--------10-------------
E|--------------------------------------------------------------------

  ?solo las luces del creador?     ?y a las moradas del tormento condenarlos?
G|-------------------------------------------------------------12-----
D|--------------11--------11--11-----------------11-------------------
A|-7--------10--------10------------7--------10-----------------------
E|--------------------------------------------------------------------

?si estas pensando solo en vos?               \
G|---------------------------------------     |
D|---------------------------------------     |
A|---------------------------------------     |
E|-8-8-8|8|8-8|8|8-8--7--7-7|7|7-7|7|7-7-     |
                                              | Parte
        ?jamas lo entenderas?                 |   B
G|-----------------------------------         |
D|-----------------------------------         |
A|-----------------------------------         |
E|-6--6-6|6|6-6|6|6-6--5-(3)-(5)-----         |
                                              /

G|------------------       (Esta parte se puede obviar ya que tambien lo hace
D|------------------  /____ la guitarra. Pero queda bueno si ademas lo acompaña
A|-7|6|5-7|6|5-7|6|5  \     el bajo)
E|------------------

Repite parte A. Despues:

   ?cierto es que existe un todopoderoso,las señales son testigos su esencia?
G|----------------------------------------------------------12---12---
D|--------------11--------11--11-----------------11------(11)-(11)----
A|-7--------10--------10------------7--------10-----------------------
E|--------------------------------------------------------------------

?sobre lo inmundo de estra era?   ?que nos oculta la verdad de la existencia?
G|--------------------------------------------------------------------
D|--------------11-------------------------------11--------11----11---
A|-7--------10----------------------7--------10-----------------------
E|--------------------------------------------------------------------

Repite parte B. Despues:

1:12
                          (2 veces)
G|--------------------------------------------------------------|
D|--------------------------------------------------------------|
A|-2--2-2|2|2-2|2|2-2|2|2-5---5---2--2-2|2|2-2|2|2-2|2|2-0---7--|
E|--------------------------------------------------------------|

G|---------------------6--6-6-6--6-6-6-----------------------12-------12----12-
D|-----------------5------------------------------------11---------11----11----
A|7--7-7|7|7-7|7|7---------------------7--7-7|7|7-7|7|7------------------------
E|-----------------------------------------------------------------------------

G|---------------------6--6-6-6--6-6-6----------------------7--7-7-7-7-7-7-7-7-
D|-----------------5------------------------------------5----------------------
A|7--7-7|7|7-7|7|7---------------------7--7-7|7|7-7|7|7------------------------
E|-----------------------------------------------------------------------------

Repite parte B. Despues:

G|-----------
D|-----------
A|--------12\
E|-----------

Repite parte A. Despues:

?no hay mas camino que el estrecho?        ?para quien de todo ese circo?
G|------------------------------------------------------------(12)----
D|--------------11--------11--11-----------------11--------11---------
A|-7--------10--------10------------7--------10--------10-------------
E|--------------------------------------------------------------------

 ?por eso ya desechamos las ligaduras? ?que a ideales de hombres nos tengan?
G|--------------------------------------------------------12|12|12|12|12|12-
D|--------------11--------11--11-----------------11-------------------------
A|-7--------10--------10------------7--------10-----------------------------
E|--------------------------------------------------------------------------

?pronto hermanos, es preciso?
G|---------------------------------------
D|---------------------------------------
A|---------------------------------------
E|-8-8-8|8|8-8|8|8-8--7--7-7|7|7-7|7|7-7-

        ?ya no hay mas que esperar?
G|----------------------------------------------------------------
D|----------------------------------------------------------------
A|----------------------------------------------------------------
E|-6--6-6|6|6-6|6|6-6--5--3----0----------------------------------

El original de este tema esta un cuarto de semitono mas grave que la afinacion
comun (La 440).

     /: slide up (?arrastrar? hacia adelante)
     \: slide down (?arrastrar hacia atrás)
   (x): nota fantasma
x |x : tocar las dos notas consecutivamente rápido por Ej. 7|7

El fin de los inicuos (Iorio-Zamarbide-Roldan-Cenci)

LLegado el tiempo vendrá el fin de los inicuos,
pues su ignorancia los mantiene en egoísmo.
Solo las luces del creador podrán juzgarlos,
y a las moradas del tormento condenarlos.
Si estás pensando solo en vos,
jamás lo entenderás.

Cierto es que existe un Todopoderoso.
Las señales son testigo de su esencia.
Sobre lo inmundo de esta era pervertida,
que nos oculta la verdad de la existencia.
Quien se conforma con el mundo y su dolor,
jamás la encontrará.

No hay mas camino,
que el estrecho y sin caretas,
para quien de todo ese circo no es payaso.
Por eso, ya desechamos las ligaduras
que a ideales de hombres nos tengan atado.
Pronto hermanos, es preciso,
ya no hay mas que esperar.
Добавлено: 26.10.2014
Другие материалы по этой песне:
  • Аккорды и текст

Страница создана 26.10.2014
http://primanota.ru/v8/el-fin-de-los-inicuos-chords.htm
Привет, Гость.
Предлагаем пройти революционный курс по гитаре.
Подарок от PrimaNota.Ru, забирай!