PrimaNota.ru - самый крупный в мире бесплатный архив песенных текстов, аккордов, табулатур и нот


V8 - Deseando Destruir Y Matar - таба, бас-таба, видео

Регистрация Запомнить меня
Войти через:  Facebook Google Twitter Vk Yandex Mail.ru

V8 - Deseando Destruir Y Matar - таба, бас-таба, видео

Печатать
Просмотров: 101
Новый альбом группы 'Черный Кузнец' по культовому сериалу 'Сверхъестественное'!
INTRO:
e|--------------------------------------------------------------------|
B|--------------------------------------------------------------------|X4
G|--------------------------------------------------------------------|
D|--------3-2------7---------------7----------------------------------|
A|--0-3-0------3-3/5-5--5-5-5-5--5-5-5--5-5-5-5--5-5---------------5--|
E|-------------------------------------------------3-3--3-3-3-3--3-3--|

    
D5           C5/F5/C5/D5
La noche está, 
ya por caer
la soledad, nos deja ver,

A5#                            G5
que pronto se cierran las puertas,
C5                        D5
y el miedo envuelve el lugar,
A5#               G5
mil naves se acercan
C5                    D5 / C5 / A5 / G5
deseando destruir y matar.


e|-----------------------------------------------------------------------------------|
B|-----------------------------------------------------------------------------------|
G|-----------------------------------------------------------------------------------|
D|---------------------3-3/5------------------3-3/5-----------------------3-2-----5--|
A|--5------------------1-1/3--5---------------1-1/3--5--------------0-3-0-----3-3/5--|
E|--3-3-3-3-3-3-3-3-3---------3-3-3-3-3-3-3----------3-3-3-3-3-3-3-------------------|


Y el terror, ya floreció
la mutilación, ya comenzó
se agudiza el llanto y la gente, 
padece por un ideal
mil hombres se enfrentan,
sembrando destrucción total.


SOLO GUITARRA 1


e|----------------------------------------------------------------------------------------|
B|----------------------------------------------------------------------------------------|
G|----------------------------------------------------------------------------------------|
D|----------9------------------9----------5----------9----------------------9----------5--|
A|----------7--(BAJO)----------7--5^4^5^4------------7--5^4^5^4-------------7--5^4^5^4----|
E|--0-0-0-0------------0-0-0-0---------------0-0-0-0------------5---0-0-0-0---------------|
^^^^
(Repite como Base).

Muere el cobarde,
bañado en su sangre
y el valiente con la sangre enemiga
todos creen en Dios,
ante el miedo incontrolable
y el ardiente metal
penetrándole la carne.


E
Todo es miedo, muerte,

                E5
pena, llanto y dolor

E
azotes de maldad

                 E5 / D5
que recibe el mundo hoy


su mal los condena
aunque ellos no lo advierten
el infierno goza 
con la idiotez de esa gente.


SOLO GUITARRA 2


Todo es miedo, muerte,
pena, llanto y dolor 
azotes de maldad 
que recibe el mundo hoy
corriste a la guerra,
por tu sueldo y por tu gente,
la que te ha olvidado 
y aún hostiga tu presente...


E5 / D5
B5 / A5
E5

para el hombre, no hay mas mal,
que el propio hombre, al engendrar
codicia, ambición e injusticias
que culminan en agresión
fuerza demencial
que domina el mundo de hoy. 


FINAL: 
   D5                            C5
e|---------------------------------------------------------------|
B|---------------------------------------------------------------|
G|----7------7------7------7--------5------5------5------5-------|
D|------7------7------7------7--------5------5------5------5-----|
A|--5------5------5------5-----5--3------3------3------3------3--|
E|---------------------------------------------------------------|

e|---------------------------------------------------------------|
B|---------------------------------------------------------------|
G|---------------------------------------------------------------|
D|----7------7------7------7--------5------5------5------5-------|
A|------7------7------7------7--------5------5------5------5-----|
E|--5------5------5------5-----5--3------3------3------3------3--|

D5 / C5
A5 / G5 / F5
D5
Добавлено: 13.10.2014
Другие материалы по этой песне:
  • Аккорды и текст

Страница создана 21.09.2014
http://primanota.ru/v8/deseando-destruir-y-matar-chords.htm
Привет, Гость.
Предлагаем пройти революционный курс по гитаре.
Подарок от PrimaNota.Ru, забирай!