PrimaNota.ru - самый крупный в мире бесплатный архив песенных текстов, аккордов, табулатур и нот


V A N L I S - Nothing - таба, видео

Регистрация Запомнить меня
Войти через:  Facebook Google Twitter Vk Yandex Mail.ru

V A N L I S - Nothing - таба, видео

Печатать
Просмотров: 31
Уроки эстрадного вокала в Санкт-Петербурге
-------------------------------------------------------------------------------
                             NOTHING - V A N L I S
-------------------------------------------------------------------------------
Tabbed by: Elisabetta Fenu

Hello, everybody! This is the first song that I've ever tabbed. Of course it's not the official tab : it's
just something that I've learnt to play by ear and figured it sounded pretty close to the song. 
I also recorded a guitar cover for this song in which at the end I improvise a guitar solo. You can watch
it here : https://www.youtube.com/watch?v=HlPvayIyRLo

Enjoy!:)

P.S. "Nothing" is one of the two demos released by V A N L I S and I strongly suggest
to check this out : http://vanlis.bandcamp.com/

Tuning: DADGBE

INTRO 
Guitar 1 :

e|-----------------------------------------------------------------------------------|
B|-----------------------------------------------------------------------------------|
G|-0-0-0-0-0-0-----------------------------------------------------------------------|
D|-2-2-2-2-2-2-4-4-5-5-5-5-5-5-5-5-12-12-12-12-12-12-12-12-10-10-10-10-10-10-10-10---| [x2]
A|-2-2-2-2-2-2-4-4-5-5-5-5-5-5-5-5-12-12-12-12-12-12-12-12-10-10-10-10-10-10-10-10---|
D|-------------4-4-5-5-5-5-5-5-5-5-12-12-12-12-12-12-12-12-10-10-10-10-10-10-10-10---|

Guitar 2 :

e|----------------------------------------------------|        
B|-12--10-----------12--8-------------12--10----------|
G|---11--11-[x8]------11--11-[x4]-------11--11-[x4]---|
D|----------------------------------------------------| 
A|----------------------------------------------------|
D|----------------------------------------------------|

[00:21] "Oh I got nothing, oh I got nothing left to give you..."

let ring 
e|-------------------------------|
B|-------------------------------|
G|-0-----------------------------|
D|-2---------7---------5---------| [x2]
A|-2---------7---------5---------|
D|-----------7---------5---------|

[00:41] "I got the devil on my breath..."

Guitar 1 :

P.M. --------------------------------------------------------------------------------|

e|-----------------------------------------------------------------------------------|
B|-----------------------------------------------------------------------------------|
G|-0-0-0-0-0-0-----------------------------------------------------------------------|
D|-2-2-2-2-2-2-4-4-5-5-5-5-5-5-5-5-12-12-12-12-12-12-12-12-10-10-10-10-10-10-10-10---| [x2]
A|-2-2-2-2-2-2-4-4-5-5-5-5-5-5-5-5-12-12-12-12-12-12-12-12-10-10-10-10-10-10-10-10---|
D|-------------4-4-5-5-5-5-5-5-5-5-12-12-12-12-12-12-12-12-10-10-10-10-10-10-10-10---|

Guitar 2 :

e|----------------------------------------------------|        
B|-12--10-----------12--8-------------12--10----------|
G|---11--11-[x8]------11--11-[x4]-------11--11-[x4]---|
D|----------------------------------------------------| 
A|----------------------------------------------------|
D|----------------------------------------------------|

[01:02] "But I got nothing, I got nothing else to give you..."

let ring 
e|-------------------------------|
B|-------------------------------|
G|-0-----------------------------|
D|-2---------7---------10--------| [x2]
A|-2---------7---------10--------|
D|-----------7---------10--------|

[01:21] "The sun is starting to rise..."

Guitar 1 :

P.M. --------------------------------------------------------------------------------|

e|-----------------------------------------------------------------------------------|
B|-----------------------------------------------------------------------------------|
G|-0-0-0-0-0-0-----------------------------------------------------------------------|
D|-2-2-2-2-2-2-4-4-5-5-5-5-5-5-5-5-12-12-12-12-12-12-12-12-10-10-10-10-10-10-10-10---| [x2]
A|-2-2-2-2-2-2-4-4-5-5-5-5-5-5-5-5-12-12-12-12-12-12-12-12-10-10-10-10-10-10-10-10---|
D|-------------4-4-5-5-5-5-5-5-5-5-12-12-12-12-12-12-12-12-10-10-10-10-10-10-10-10---|

Guitar 2 :

e|----------------------------------------------------|        
B|-12--10-----------12--8-------------12--10----------|
G|---11--11-[x8]------11--11-[x4]-------11--11-[x4]---|
D|----------------------------------------------------| 
A|----------------------------------------------------|
D|----------------------------------------------------|

[01:42] "But I got nothing, I got nothing else to give you..."

let ring 
e|-------------------------------|
B|-------------------------------|
G|-0-----------------------------|
D|-2---------7---------10--------| [x2]
A|-2---------7---------10--------|
D|-----------7---------10--------|

[02:02] "'Cause I gave it all away..."

Guitar 1 :

P.M. --------------------------------------------------------------------------------|

e|-----------------------------------------------------------------------------------|
B|-----------------------------------------------------------------------------------|
G|-0-0-0-0-0-0-----------------------------------------------------------------------|
D|-2-2-2-2-2-2-4-4-5-5-5-5-5-5-5-5-12-12-12-12-12-12-12-12-10-10-10-10-10-10-10-10---| [x2]
A|-2-2-2-2-2-2-4-4-5-5-5-5-5-5-5-5-12-12-12-12-12-12-12-12-10-10-10-10-10-10-10-10---|
D|-------------4-4-5-5-5-5-5-5-5-5-12-12-12-12-12-12-12-12-10-10-10-10-10-10-10-10---|


Guitar 2 :

e|----------------------------------------------------|        
B|-12--10-----------12--8-------------12--10----------|
G|---11--11-[x8]------11--11-[x4]-------11--11-[x4]---|
D|----------------------------------------------------| 
A|----------------------------------------------------|
D|----------------------------------------------------|

[02:22] "Oh I got nothing..."

e|-----------------------------------------------------------------------------------|
B|-----------------------------------------------------------------------------------|
G|-0-0-0-0-0-0-----------------------------------------------------------------------|
D|-2-2-2-2-2-2-4-4-5-5-5-5-5-5-5-5-12-12-12-12-12-12-12-12-10-10-10-10-10-10-10-10---| [x2]
A|-2-2-2-2-2-2-4-4-5-5-5-5-5-5-5-5-12-12-12-12-12-12-12-12-10-10-10-10-10-10-10-10---|
D|-------------4-4-5-5-5-5-5-5-5-5-12-12-12-12-12-12-12-12-10-10-10-10-10-10-10-10---|

SOLO

Guitar 1 :

let ring 
e|-------------------------------|
B|-------------------------------|
G|-0-----------------------------|
D|-2---------7---------10--------| [x2]
A|-2---------7---------10--------|
D|-----------7---------10--------|

Guitar 2 :

e|------------------------------------------|---------------------------------------------------------|
B|--15/17-15~~--12-15-17-15~~---------------|--15/17-15~~--12-15/17-12~~-12-15/17-17~~-12-15/17-15~~--|
G|-14------------------------12h14-12h14~~--|-14------------------------------------------------------|
D|---------------------------12-------------|---------------------------------------------------------|
A|------------------------------------------|---------------------------------------------------------|
D|------------------------------------------|---------------------------------------------------------|

[03:18] "But I got nothing..."

e|-----------------------------------------------------------------------------------|
B|-----------------------------------------------------------------------------------|
G|-0-0-0-0-0-0-----------------------------------------------------------------------|
D|-2-2-2-2-2-2-4-4-5-5-5-5-5-5-5-5-12-12-12-12-12-12-12-12-10-10-10-10-10-10-10-10---| [x3]
A|-2-2-2-2-2-2-4-4-5-5-5-5-5-5-5-5-12-12-12-12-12-12-12-12-10-10-10-10-10-10-10-10---|
D|-------------4-4-5-5-5-5-5-5-5-5-12-12-12-12-12-12-12-12-10-10-10-10-10-10-10-10---|

e|---------------------------------------------------------------------------------------|
B|---------------------------------------------------------------------------------------|
G|-0-0-0-0-0-0---------------------------------------------------------------------------|
D|-2-2-2-2-2-2-4-4-5-5-5-5-5-5-5-5-12-12-12-12-12-12-12-12-10-10-10-10-10-10-10-10-14\\--| 
A|-2-2-2-2-2-2-4-4-5-5-5-5-5-5-5-5-12-12-12-12-12-12-12-12-10-10-10-10-10-10-10-10-14\\--|
D|-------------4-4-5-5-5-5-5-5-5-5-12-12-12-12-12-12-12-12-10-10-10-10-10-10-10-10-14\\--|





************************************

| /   slide up
| \   slide down
| h   hammer-on
| p   pull-off
| ~   vibrato
| +   harmonic
| x   Mute note
| b   Bend
| pb  Pre-bend
| br  Bend release
| pbr Pre-bend release
| brb Bend release bend

************************************
Добавлено: 19.06.2016
Другие материалы по этой песне:
  • Аккорды и текст

Страница создана 18.06.2016
http://primanota.ru/v-a-n-l-i-s/nothing-chords.htm
Привет, Гость.
Предлагаем пройти революционный курс по гитаре.
Подарок от PrimaNota.Ru, забирай!