PrimaNota.ru - самый крупный в мире бесплатный архив песенных текстов, аккордов, табулатур и нот


Uzi Chitman - Toda - таба, видео

Регистрация Запомнить меня
Войти через:  Facebook Google Twitter Vk Yandex Mail.ru

Uzi Chitman - Toda - таба, видео

Печатать
Просмотров: 153
Uzi Hitman / Chitman  - Toda ("thank you")

~ Voice Melody tabbed for guitar ~


Tab by Avi Yaacov, Israel



e|--3-3-2-0--|--7-2--|--3-2-0--|
B|-----------|-------|---------|
G|-----------|-------|---------|      X 2
D|-----------|-------|---------|
A|-----------|-------|---------|
E|-----------|-------|---------|



e|--5-5-7-8-8--|--3-3-5-7-7--|--3-2-0------|----2-0--|
B|-------------|-------------|--------0-0--|--3------|
G|-------------|-------------|-------------|---------|
D|-------------|-------------|-------------|---------|
A|-------------|-------------|-------------|---------|
E|-------------|-------------|-------------|---------|



e|--5-5-7-8-8--|--3-3-5-7-7--|--3-2-0------|------2-0--|
B|-------------|-------------|--------0-0--|--0-3------|
G|-------------|-------------|-------------|-----------|
D|-------------|-------------|-------------|-----------|
A|-------------|-------------|-------------|-----------|
E|-------------|-------------|-------------|-----------|

Добавлено: 03.08.2015
Вам также может быть интересно:
Другие материалы по этой песне:
  • Аккорды и текст

Страница создана 03.08.2015
http://primanota.ru/uzi-chitman/toda-chords.htm
Привет, Гость.
Предлагаем пройти революционный курс по гитаре.
Подарок от PrimaNota.Ru, забирай!