PrimaNota.ru - самый крупный в мире бесплатный архив песенных текстов, аккордов, табулатур и нот


Uverworld - D-tecnolife - текст песни, таба, видео

Регистрация Запомнить меня
Войти через:  Facebook Google Twitter Vk Yandex Mail.ru

Uverworld - D-tecnolife - текст песни, таба, видео

Печатать
Просмотров: 502
Авторы музыки: TAKUYA∞
Авторы текста: TAKUYA∞
Uverworld D-tecnolife Bleach Opening


1:25 version



-----------------4---------------|
---5-4-5-7-5-4-5---5-7-5-4-5-4---|
-6-----------------------------4-|
---------------------------------| x2
---------------------------------|
---------------------------------|


Verse

----------------------------------------|
--------------------------------12------|slidedown
--11-9-11-9-11-9-11-9-11-9-11-9---------|
----------------------------------------|x3
----------------------------------------|
----------------------------------------|

----------------------------------------|
--------------------------------12------|slideup
--11-9-11-9-11-9-11-9-11-9-11-9---------|
----------------------------------------|
----------------------------------------|
----------------------------------------|

Prechorus

---------------------------------------|
---------------------------------------|
---8--6-6---8--6-6---8--8--8--8--------|
---x--x-x---x--x-x---x--x--x--x--------|
--10--8-8--10--8-8--10-10-10-10--------| x2
---------------------------------------|

------    ------    -----------|
------    ------    -----------|
---6--    ------    -6--6-6-6--|
--6--- x8 -7---- x8 -6--6-6-6--|
-4----    -7----    -4--4-4-4--|
------    -7----    -----------|

Chorus, Strum

-------------------|
-6---------9-------|
-6---7--9--9-------| x2
-4---7--9--7-------|
-----7--9----------|

--------------------|
--------------------|
-6--------9-9-8-6-4-|
-6--7--9--9-9-8-6-4-|
-4--7--9--7-7-6-4-2-|
----7--9------------|

-------------------|
-6---------9-------|
-6---7--9--9-------|
-4---7--9--7-------|
-----7--9----------|





Pre ending

-----------------4---------------|
---5-4-5-7-5-4-5---5-7-5-4-5-4---|
-6-----------------------------4-|
---------------------------------| x3
---------------------------------|
---------------------------------|

-----------------4----------------|
---5-4-5-7-5-4-5---5-7-5-4-5-4----|
-6-----------------------------4~-|
----------------------------------|
----------------------------------|
----------------------------------|

Ending

---------------------|
---------------------|
---------6-4-4-------|
--6-4-4-----------7--|
------------------7--|
------------------7--|
Добавлено: 12.07.2012
Другие материалы по этой песне:

Страница создана 04.04.2012
http://primanota.ru/uverworld/d-tecnolife-chords.htm
Привет, Гость.
Предлагаем пройти революционный курс по гитаре.
Подарок от PrimaNota.Ru, забирай!