PrimaNota.ru - самый крупный в мире бесплатный архив песенных текстов, аккордов, табулатур и нот


Utro - Neznakomaya Sila - таба, видео

Регистрация Запомнить меня
Войти через:  Facebook Google Twitter Vk Yandex Mail.ru

Utro - Neznakomaya Sila - таба, видео

Печатать
Просмотров: 177
Уроки эстрадного вокала в Санкт-Петербурге
Utro - Neznakomaya Sila
Track 3 from the album "Utro" (self-released 2010).

Tabbed by Isaac Murguia, November 2014.
Originally uploaded to Ultimate-Guitar.com
Contact: www.youtube.com/Goadiroth

INTRO:
e|---------------------|
B|---------------------|
G|---------------------|
D|---------------------|
A|-2222-2222-2222-2222-|
E|---------------------| [x6]

VERSE:
       [x3]
e|---------------|-----------|
B|---------------|-----------|
G|---------------|-----------|
D|----4-0----3-0-|-3333-3333-|
A|-2-------2-----|-----------|
E|---------------|-----------| [x2]

       [x3]                         [x3]
e|---------------|-----------|---------------|-----------|
B|---------------|-----------|---------------|-----------|
G|---------------|-----------|---------------|-----------|
D|----4-3----4-3-|-7777-7777-|----4-3----4-3-|-0000-0000-|
A|-2-------2-----|-----------|-2-------2-----|-----------|
E|---------------|-----------|---------------|-----------|

POST-VERSE:
       [x3]
e|----2------1---|-1111-111--|
B|------3------3-|-----------|
G|-4-------4-----|-----------|
D|---------------|-----------|
A|---------------|-----------|
E|---------------|-----------| [x2]

Repeat VERSE

BEFORE SOLO:
e|---------------|
B|---------------|
G|---------------|
D|----4-0----3-0-|
A|-2-------2-----|
E|---------------| [x2]

SOLO/OUTRO:
e|----------------------------------------------------|
B|----------------------------------------------------|
G|-10-10-10-10--10-10-10-10--10-11-11-11--11-11-11-11-|
D|----------------------------------------------------|
A|----------------------------------------------------|
E|----------------------------------------------------| [x4]

e|-13-13-13-13--13-13-13-13--13-14-14-14--14-14-14-14-|      |-13--|
B|----------------------------------------------------|      |-----|
G|----------------------------------------------------|      |-----|
D|----------------------------------------------------|      |-----|
A|----------------------------------------------------|      |-----|
E|----------------------------------------------------| [x4] |-----|

End. Please rate! :D
Добавлено: 02.07.2015
Другие материалы по этой песне:
  • Аккорды и текст

Страница создана 02.07.2015
http://primanota.ru/utro/neznakomaya-sila-chords.htm
Привет, Гость.
Предлагаем пройти революционный курс по гитаре.
Подарок от PrimaNota.Ru, забирай!