PrimaNota.ru - самый крупный в мире бесплатный архив песенных текстов, аккордов, табулатур и нот


Utro - Kak Zhe Ya Byl Slab V Te Dni - таба, видео

Регистрация Запомнить меня
Войти через:  Facebook Google Twitter Vk Yandex Mail.ru

Utro - Kak Zhe Ya Byl Slab V Te Dni - таба, видео

Печатать
Просмотров: 150
Уроки эстрадного вокала в Санкт-Петербурге
Utro - Kak zhe ya byl slab v te dni
Track 5 from the album "Utro" (self-released 2010).

Tabbed by Isaac Murguia, November 2014.
Originally uploaded to Ultimate-Guitar.com
Contact: www.youtube.com/Goadiroth

INTRO:
e|-------------------------|------------xxx-x-x-|
B|-----000000-0--0--0--0-0-|-----00000x-777-6-6-|
G|-----999999-10-10-10-9-9-|-----99999x-777-6-6-|
D|-4/9-999999-10-10-10-9-9-|-4/9-99999x-xxx-x-x-|
A|-2/7-777777-8--8--8--7-7-|-2/7-77777x---------|
E|-------------------------|--------------------| [x4]

VERSE 1: (comes in after 1st half of verse)
e|---------------------------------------------------|
B|---------------------------------------------------|
G|---------------------------------------------------|
D|---------------------------------------------------|
A|-7777-7777-5555-5555-7777-7777-7/10--10-10--10-10--|
E|---------------------------------------------------|

e|-------------------------------------------|
B|-------------------------------------------|
G|-------------------------------------------|
D|-------------------------------------------|
A|-7777-7777-5555-5555-5/7--77--777-7777-777-|
E|-------------------------------------------|

CHORUS:
e|--------------------------------|----------------------------------|
B|------------------12------------|------------------12-12-----------|
G|-/12-12--12-12-12-----11--11-11-|-/12-12--12-12-12-------11--11-11-|
D|--------------------------------|----------------------------------|
A|--------------------------------|----------------------------------|
E|--------------------------------|----------------------------------| [x4]

Repeat INTRO [x2]

VERSE 2: (comes in after 1st half of verse)
e|---------------------------------------------------------|
B|---------------------------------------------------------|
G|-9999-9999-7777-7777-9999-9999-9/12-12-12-12-12-12-12-12-|
D|---------------------------------------------------------|
A|---------------------------------------------------------|
E|---------------------------------------------------------|

e|-----------------------------------------|
B|-----------------------------------------|
G|-9999-9999-7--77--77--9--99--999--999999-|
D|-----------------------------------------|
A|-----------------------------------------|
E|-----------------------------------------|

Repeat CHORUS [x4]

OUTRO:
e|--------------------|-----------------------|--------------------|-----------------------|
B|-------12--12-12-12-|-15-15-15--------------|-------12--12-12-12-|-15-15-----------------|
G|-12-12--------------|-----------11-11-11----|-12-12--------------|--------11--11-11-11---|
D|--------------------|-----------------------|--------------------|-----------------------|
A|--------------------|-----------------------|--------------------|-----------------------|
E|--------------------|-----------------------|--------------------|-----------------------|

e|--------------------|-----------------------|--------------------|-----------------------|
B|-------12--12-12-12-|-15-15-15--------------|-------12--12-12-12-|-12--------------------|
G|-12-12--------------|-----------11-11-11----|-12-12--------------|----11-11--11-11-11----|
D|--------------------|-----------------------|--------------------|-----------------------|
A|--------------------|-----------------------|--------------------|-----------------------|
E|--------------------|-----------------------|--------------------|-----------------------|

                     [x3]
e|--------------------------------------------|--------------------------------------------|
B|-------15----------12-12--12---12-12-12-----|-------15-12-12-12--------------------------|
G|-12-12----11-11-11--------------------------|-12-12--------------11-11--11---11-11-11-\9-|
D|--------------------------------------------|--------------------------------------------|
A|--------------------------------------------|--------------------------------------------|
E|--------------------------------------------|--------------------------------------------|

End. Please rate! :D
Добавлено: 02.07.2015
Вам также может быть интересно:
Другие материалы по этой песне:
  • Аккорды и текст

Страница создана 02.07.2015
http://primanota.ru/utro/kak-zhe-ya-byl-slab-v-te-dni-chords.htm
Привет, Гость.
Предлагаем пройти революционный курс по гитаре.
Подарок от PrimaNota.Ru, забирай!