PrimaNota.ru - самый крупный в мире бесплатный архив песенных текстов, аккордов, табулатур и нот


Utro - Dushi Stareyut Bystreye Tel - таба

Регистрация Запомнить меня
Войти через:  Facebook Google Twitter Vk Yandex Mail.ru

Utro - Dushi Stareyut Bystreye Tel - таба

Печатать
Просмотров: 177
Utro - Dushi Stareyut Bystreye Tel
Track 9 from the album "Utro" (self-released 2010).

Tabbed by Isaac Murguia, November 2014.
Originally uploaded to Ultimate-Guitar.com
Contact: www.youtube.com/Goadiroth

INTRO: [x2]
e|----------------------|      |-4-----|
B|----------------------|      |-5-----|
G|----------------------|      |-4-----|
D|----3-4--------3-4----|      |-------|
A|-4-------5--4-------5-|      |-------|
E|----------------------| [x4] |-------|

VERSE:
e|----------------------|      |-4--------14--------|
B|----------------------|      |-5--------15--------|
G|----------------------|      |-4-//////-14-\\\\\\-|
D|----3-4--------3-4----|      |--------------------|
A|-4-------5--4-------5-|      |--------------------|
E|----------------------| [x8] |--------------------|

e|----------------------|
B|----------------------|
G|----------------------|
D|----3-4--------3-4----|
A|-4-------5--4-------5-|
E|----------------------| [x4]

BRIDGE:
e|------------------------------------------|
B|-12------------------------------12-12-12-|
G|----13---11-13-11--11-13-11--13-----------|
D|------------------------------------------|
A|------------------------------------------|
E|------------------------------------------|

e|-----------------------------|
B|-12--------------------------|
G|----13---11-13-11--11-13-11--|
D|-----------------------------|
A|-----------------------------|
E|-----------------------------|

OUTRO:
e|------------------------------------|------------------------------------|
B|------------------------------------|------------------------------------|
G|-66-6-6-6-6-6-66--------------------|-66-6-6-6-6-6-66--------------------|
D|-66-6-6-6-6-6-66--555-2-222-555-4-4-|-66-6-6-6-6-6-66--555-4-444-555-4-4-|
A|------------------------------------|------------------------------------|
E|------------------------------------|------------------------------------| [x3]

End. Please rate! :D
Добавлено: 02.07.2015
Другие материалы по этой песне:
  • Аккорды и текст

Страница создана 02.07.2015
http://primanota.ru/utro/dushi-stareyut-bystreye-tel-chords.htm
Привет, Гость.
Предлагаем пройти революционный курс по гитаре.
Подарок от PrimaNota.Ru, забирай!