PrimaNota.ru - самый крупный в мире бесплатный архив песенных текстов, аккордов, табулатур и нот


Uthanda - Did You - таба, видео

Регистрация Запомнить меня
Войти через:  Facebook Google Twitter Vk Yandex Mail.ru

Uthanda - Did You - таба, видео

Печатать
Просмотров: 73
		   "DID YOU"
                                 by Uthanda
                            from the CD "Believe"
 
                          transcribed by Mike Pilato
                          using the standard tuning
                          and typical compu-tabbing
                          conventions: /,\  =  slides
                                         #  =  harmonic
                                         ^  =  bend
                                         p  =  pulloff
                                         h  =  hammer on
 
 
C     x 3 2 0 1 0
E     0 2 2 1 0 0
Esus  0 2 2 2 0 0
Em    0 2 2 0 0 0
Emd   0 2 2 0 3 0
Em6   0 2 2 0 2 0
F     x 3 3 2 1 1
G     3 2 0 0 0 3
Am    x 0 2 2 1 0 
 
=+=+=+=+=+=+=+=+===-------------
 
E  -  Emd  -   Em6  -   Emd
 
             G      Em 
Pinwheels of golden thread
           G       Em
Pulling my heart instead
             Am             Em
Wrapping the warmest of memories
           F                   C
'Round the coldest a heart can be
             G      Em
Question the bluest sky
              G       Em
Watching your flowers die
      Am                Em
Seems life is a whisper of
  F               C
A greater kind of love
 
CHORUS 1:
G                 Em
Did you think I'd lost my way
G               Em
Did you want my heart to stay
Am                     Em                     F     C
Did you think that the world would change for you?
 
(verse as above)
Tying a string on these 
Memories
Punching a hole in the walls of doubt
No hope of a way out
Faith is a simple door
Love is to question more
I hope that the darkest night
Is as black as the day is light
 
(chorus as above x2)
CHORUS 2:
Did you think I'd lost my way
Did you want my heart to stay
Did you think that the world would change for you?
Did you tell yourself a lie
Did you pretend to touch the sky
Don't you think that a world should change in you?
 
Em -  Emd  -
 
 G                  Em                 G                  Em
|------------------|------------------|------------8-p7--|------------------|
|-8-------10---8---|10^12^12----------|-8----------------|------------------|
|------------------|------------------|------------------|-7----------------|
|------------------|------------------|------------------|------------------|
|------------------|------------------|------------------|------------------|
|------------------|------------------|------------------|------------------|
 
 Am                 Em                 F                  C
|--------------7h8-|-10------8-----7--|-8----------------|-8--7-------------|
|---------8-10-----|------------------|------------------|-------8--------8-|
|------7-----------|------------------|------------------|----------7--9----|
|-9-10-------------|------------------|------------------|------------------|
|------------------|------------------|------------------|------------------|
|------------------|------------------|------------------|------------------|
 
 G                  Em                 G                  Em
|------------------|------------------|------------------|------------------|
|-8--8--8--8--10-8-|-8--8--8--8--8--8-|-8--8--8--8--10-8-|-8--8--8--8--8--8-|
|-7--7--7--7--7--7-|-9--9--9--9--9--9-|-7--7--7--7--7--7-|-9--9--9--9--9--9-|
|------------------|------------------|------------------|------------------|
|------------------|------------------|------------------|------------------|
|------------------|------------------|------------------|------------------|
 
 Am                 Em                 F                  C
|------------------|------------------|------------------|----------15--^-17|
|-8-----10-8-----8-|-8--------8-------|-10^11----8-----8-|------------------|
|----9--------9----|-------9----------|-------------9----|------------------|
|------------------|------------------|------------------|------------------|
|------------------|------------------|------------------|------------------|
|------------------|------------------|------------------|------------------|
 
Am                  F
Can you bring me my peace of mind
Am                    F
Will you give me this all the time
Am                F              G           E  Esus E  -
What happens when I wake from my dream,   my dream
 
(chorus as above x[a bunch])
CHORUS 2:
Did you think I'd lost my way
Did you want my heart to stay
Did you think that the world would change for you?
Did you tell yourself a lie
Did you pretend to touch the sky
Don't you think that a world should change in you?
Did you have a master plan
Did you think you could save a man
Did your think method solely true
Did you think I'd lost my way
Did you want my heart to stay
Did you think that the world would change for you?
Did you have a master plan
Did you think you could save a man
Did your think method solely true
 
 
                  ----------==''''+=+=+=+=+=+=+=+=+=+=+=+=+=+=+=+=+
+=+=+=+=+=+=+=+=+=+=+=+=+=+          --------- Mike Pilato/Phobic =
= cmpilato@ccs.vnet.net --    O  O    +=+=+=+=+=+=+=+=+=+=+=+=+=+=+
+=+=+=+=+=+=+=+=+=+=+=+=+=+  .____.  ---------- cmpilato@uncc.edu =
= 137.records@yale.edu -------....+=+=+=+=+=+=+=+=+=+=+=+=+=+=+=+=+
+=+=+=+=+=+=+=+=+=+=+=+=+=+=+=+=+==------------ 


     
Добавлено: 02.11.2013
Вам также может быть интересно:
Другие материалы по этой песне:
  • Аккорды и текст

Страница создана 02.11.2013
http://primanota.ru/uthanda/did-you-chords.htm
Привет, Гость.
Предлагаем пройти революционный курс по гитаре.
Подарок от PrimaNota.Ru, забирай!