PrimaNota.ru - самый крупный в мире бесплатный архив песенных текстов, аккордов, табулатур и нот


Uthanda - Cool Water - таба, видео

Регистрация Запомнить меня
Войти через:  Facebook Google Twitter Vk Yandex Mail.ru

Uthanda - Cool Water - таба, видео

Печатать
Просмотров: 74
		   "COOL WATER"
                                 by Uthanda
                            from the CD "Believe"
 
                          transcribed by Mike Pilato
                          using the standard tuning
                          and typical compu-tabbing
                          conventions: /,\  =  slides
                                         #  =  harmonic
                                         ^  =  bend
                                         p  =  pulloff
                                         h  =  hammer on
 
D     x x 0 2 3 2
Da    x x 0 2 3 5
Em    0 2 2 0 0 0
G     3 2 0 0 3 3
Ge    3 2 0 0 0 0 
A     x 0 2 2 2 0
 
 
=+=+=+=+=+=+=+=+=+===---------
 
D G D G D G Da
 
  D     G          D       G    D     G        Da    G
I often go to this place I know down along the square
    D     G        D     G       D       G   Da  G
And when I go this man I know is playing solitaire
 
D G D G D G Da
 
(verse as above)
You see this man he does all he can to keep himself away
From love and life the left or the right the night is the same is the day
 
CHORUS:
D              Em  
Take a look at another place 
    G                A                     D
In another time that speaks of dreams come true
                Em
The sign of the coming storm 
          G                  A
That will heal this land and take our fears away
 
D G D G D G Da
 
(verse as above)
The shadows fall on weary eyes another day forgotten
The broken dreams are swept downstream to the sea of memories if they could
 
(chorus as above)
CHORUS:
Take a look at another place 
In another time that speaks of dreams come true
The sign of the coming storm 
That will heal this land and take our fears away
 
D     Em    G     A
 
 D                  Em                 G                  A
|------------------|------------------|------------------|------------------|
|------------------|------------------|---------12-10----|---------10-------|
|-7----------------|-9-----------12-12|-12-11--------12--|-12-11---11--12-12|
|------------------|------------------|------12----------|------12----------|
|------------------|------------------|------------------|------------------|
|------------------|------------------|------------------|------------------|
 
D        G          D        G          D      G         Da             G
|------------------|------------------|-----------------|101210----------10-10|
|--------10--------|--------10--------|--------10-------|------12101210--10-10|
|-12-11--11---12-12|-12-11--11---12-12|-12-11--11-11----|--------------1211-11|
|------------------|------------------|-----------------|---------------------|
|------------------|------------------|-----------------|---------------------|
|------------------|------------------|-----------------|---------------------|
 
 D     G            D     G            D     G             Da       -
|------10h12-------|------10----------|------10h12-------|-14---------------|
|---10-10----------|---10-10----------|---10-10----------|-15---------------|
|/11---------------|/11---------------|/11---------------|-14---------------|
|------------------|------------------|------------------|------------------|
|------------------|------------------|------------------|------------------|
|------------------|------------------|------------------|------------------|
 
Ge 
|-10---|
|-8----|
|-9----|
|------|
|------|
|------|   D    G   D   G
There is a reason
Ge                Em     A                D  G  D  G  D  G  Da G 
For every drop of rain,  rain your love on me!
 
(verse as above)
A mother sighs, her baby cries, waiting for the sunrise
Another day but still no rain on these parched and weary lands if she could
 
(chorus as above)
CHORUS:
Take a look at another place 
In another time that speaks of dreams come true
The sign of the coming storm 
That will heal this land and take our fears away

 
                  ----------==''''+=+=+=+=+=+=+=+=+=+=+=+=+=+=+=+=+
+=+=+=+=+=+=+=+=+=+=+=+=+=+          --------- Mike Pilato/Phobic =
= cmpilato@ccs.vnet.net --    O  O    +=+=+=+=+=+=+=+=+=+=+=+=+=+=+
+=+=+=+=+=+=+=+=+=+=+=+=+=+  .____.  ---------- cmpilato@uncc.edu =
= 137.records@yale.edu -------....+=+=+=+=+=+=+=+=+=+=+=+=+=+=+=+=+
+=+=+=+=+=+=+=+=+=+=+=+=+=+=+=+=+==------------ 

     
Добавлено: 17.07.2013
Другие материалы по этой песне:
  • Аккорды и текст

Страница создана 17.07.2013
http://primanota.ru/uthanda/cool-water-chords.htm
Привет, Гость.
Предлагаем пройти революционный курс по гитаре.
Подарок от PrimaNota.Ru, забирай!